  0
SECTION
  2
HEADER
  9
$ACADVER
  1
AC1014
  9
$ACADMAINTVER
 70
     9
  9
$DWGCODEPAGE
  3
ANSI_1250
  9
$INSBASE
 10
0.0
 20
0.0
 30
0.0
  9
$EXTMIN
 10
1.000000000000000E+20
 20
1.000000000000000E+20
 30
1.000000000000000E+20
  9
$EXTMAX
 10
-1.000000000000000E+20
 20
-1.000000000000000E+20
 30
-1.000000000000000E+20
  9
$LIMMIN
 10
0.0
 20
0.0
  9
$LIMMAX
 10
12.0
 20
9.0
  9
$ORTHOMODE
 70
     0
  9
$REGENMODE
 70
     1
  9
$FILLMODE
 70
     1
  9
$QTEXTMODE
 70
     0
  9
$MIRRTEXT
 70
     1
  9
$DRAGMODE
 70
     2
  9
$LTSCALE
 40
1.0
  9
$OSMODE
 70
    37
  9
$ATTMODE
 70
     1
  9
$TEXTSIZE
 40
0.2
  9
$TRACEWID
 40
0.05
  9
$TEXTSTYLE
  7
STANDARD
  9
$CLAYER
  8
0
  9
$CELTYPE
  6
BYLAYER
  9
$CECOLOR
 62
   256
  9
$CELTSCALE
 40
1.0
  9
$DELOBJ
 70
     1
  9
$DISPSILH
 70
     0
  9
$DIMSCALE
 40
1.0
  9
$DIMASZ
 40
0.18
  9
$DIMEXO
 40
0.0625
  9
$DIMDLI
 40
0.38
  9
$DIMRND
 40
0.0
  9
$DIMDLE
 40
0.0
  9
$DIMEXE
 40
0.18
  9
$DIMTP
 40
0.0
  9
$DIMTM
 40
0.0
  9
$DIMTXT
 40
0.18
  9
$DIMCEN
 40
0.09
  9
$DIMTSZ
 40
0.0
  9
$DIMTOL
 70
     0
  9
$DIMLIM
 70
     0
  9
$DIMTIH
 70
     1
  9
$DIMTOH
 70
     1
  9
$DIMSE1
 70
     0
  9
$DIMSE2
 70
     0
  9
$DIMTAD
 70
     0
  9
$DIMZIN
 70
     0
  9
$DIMBLK
  1

  9
$DIMASO
 70
     1
  9
$DIMSHO
 70
     1
  9
$DIMPOST
  1

  9
$DIMAPOST
  1

  9
$DIMALT
 70
     0
  9
$DIMALTD
 70
     2
  9
$DIMALTF
 40
25.4
  9
$DIMLFAC
 40
1.0
  9
$DIMTOFL
 70
     0
  9
$DIMTVP
 40
0.0
  9
$DIMTIX
 70
     0
  9
$DIMSOXD
 70
     0
  9
$DIMSAH
 70
     0
  9
$DIMBLK1
  1

  9
$DIMBLK2
  1

  9
$DIMSTYLE
  2
STANDARD
  9
$DIMCLRD
 70
     0
  9
$DIMCLRE
 70
     0
  9
$DIMCLRT
 70
     0
  9
$DIMTFAC
 40
1.0
  9
$DIMGAP
 40
0.09
  9
$DIMJUST
 70
     0
  9
$DIMSD1
 70
     0
  9
$DIMSD2
 70
     0
  9
$DIMTOLJ
 70
     1
  9
$DIMTZIN
 70
     0
  9
$DIMALTZ
 70
     0
  9
$DIMALTTZ
 70
     0
  9
$DIMFIT
 70
     3
  9
$DIMUPT
 70
     0
  9
$DIMUNIT
 70
     2
  9
$DIMDEC
 70
     4
  9
$DIMTDEC
 70
     4
  9
$DIMALTU
 70
     2
  9
$DIMALTTD
 70
     2
  9
$DIMTXSTY
  7
STANDARD
  9
$DIMAUNIT
 70
     0
  9
$LUNITS
 70
     2
  9
$LUPREC
 70
     4
  9
$SKETCHINC
 40
0.1
  9
$FILLETRAD
 40
0.5
  9
$AUNITS
 70
     0
  9
$AUPREC
 70
     0
  9
$MENU
  1
.
  9
$ELEVATION
 40
0.0
  9
$PELEVATION
 40
0.0
  9
$THICKNESS
 40
0.0
  9
$LIMCHECK
 70
     0
  9
$CHAMFERA
 40
0.5
  9
$CHAMFERB
 40
0.5
  9
$CHAMFERC
 40
1.0
  9
$CHAMFERD
 40
0.0
  9
$SKPOLY
 70
     0
  9
$TDCREATE
 40
2459312.490191285
  9
$TDUPDATE
 40
2459312.490191296
  9
$TDINDWG
 40
0.0000000116
  9
$TDUSRTIMER
 40
0.0000000116
  9
$USRTIMER
 70
     1
  9
$ANGBASE
 50
0.0
  9
$ANGDIR
 70
     0
  9
$PDMODE
 70
     0
  9
$PDSIZE
 40
0.0
  9
$PLINEWID
 40
0.0
  9
$COORDS
 70
     1
  9
$SPLFRAME
 70
     0
  9
$SPLINETYPE
 70
     6
  9
$SPLINESEGS
 70
     8
  9
$ATTDIA
 70
     0
  9
$ATTREQ
 70
     1
  9
$HANDLING
 70
     1
  9
$HANDSEED
  5
428
  9
$SURFTAB1
 70
     6
  9
$SURFTAB2
 70
     6
  9
$SURFTYPE
 70
     6
  9
$SURFU
 70
     6
  9
$SURFV
 70
     6
  9
$UCSNAME
  2

  9
$UCSORG
 10
0.0
 20
0.0
 30
0.0
  9
$UCSXDIR
 10
1.0
 20
0.0
 30
0.0
  9
$UCSYDIR
 10
0.0
 20
1.0
 30
0.0
  9
$PUCSNAME
  2

  9
$PUCSORG
 10
0.0
 20
0.0
 30
0.0
  9
$PUCSXDIR
 10
1.0
 20
0.0
 30
0.0
  9
$PUCSYDIR
 10
0.0
 20
1.0
 30
0.0
  9
$USERI1
 70
     0
  9
$USERI2
 70
     0
  9
$USERI3
 70
     0
  9
$USERI4
 70
     0
  9
$USERI5
 70
     0
  9
$USERR1
 40
0.0
  9
$USERR2
 40
0.0
  9
$USERR3
 40
0.0
  9
$USERR4
 40
0.0
  9
$USERR5
 40
0.0
  9
$WORLDVIEW
 70
     1
  9
$SHADEDGE
 70
     3
  9
$SHADEDIF
 70
    70
  9
$TILEMODE
 70
     1
  9
$MAXACTVP
 70
    64
  9
$PINSBASE
 10
0.0
 20
0.0
 30
0.0
  9
$PLIMCHECK
 70
     0
  9
$PEXTMIN
 10
1.000000000000000E+20
 20
1.000000000000000E+20
 30
1.000000000000000E+20
  9
$PEXTMAX
 10
-1.000000000000000E+20
 20
-1.000000000000000E+20
 30
-1.000000000000000E+20
  9
$PLIMMIN
 10
0.0
 20
0.0
  9
$PLIMMAX
 10
12.0
 20
9.0
  9
$UNITMODE
 70
     0
  9
$VISRETAIN
 70
     1
  9
$PLINEGEN
 70
     0
  9
$PSLTSCALE
 70
     1
  9
$TREEDEPTH
 70
  3020
  9
$PICKSTYLE
 70
     1
  9
$CMLSTYLE
  2
STANDARD
  9
$CMLJUST
 70
     0
  9
$CMLSCALE
 40
1.0
  9
$PROXYGRAPHICS
 70
     1
  9
$MEASUREMENT
 70
     0
  0
ENDSEC
  0
SECTION
  2
CLASSES
  0
CLASS
  1
ACDBDICTIONARYWDFLT
  2
AcDbDictionaryWithDefault
  3
ObjectDBX Classes
 90
        0
280
     0
281
     0
  0
CLASS
  1
VISUALSTYLE
  2
AcDbVisualStyle
  3
ObjectDBX Classes
 90
     4095
280
     0
281
     0
  0
CLASS
  1
XRECORD
  2
AcDbXrecord
  3
AutoCAD 2000
 90
        0
280
     0
281
     0
  0
CLASS
  1
LWPOLYLINE
  2
AcDbPolyline
  3
AutoCAD 2000
 90
        0
280
     0
281
     1
  0
CLASS
  1
HATCH
  2
AcDbHatch
  3
AutoCAD 2000
 90
        0
280
     0
281
     1
  0
CLASS
  1
ACDBPLACEHOLDER
  2
AcDbPlaceHolder
  3
ObjectDBX Classes
 90
        0
280
     0
281
     0
  0
CLASS
  1
LAYOUT
  2
AcDbLayout
  3
ObjectDBX Classes
 90
        0
280
     0
281
     0
  0
ENDSEC
  0
SECTION
  2
TABLES
  0
TABLE
  2
VPORT
  5
8
330
0
100
AcDbSymbolTable
 70
     1
  0
VPORT
  5
29
330
8
100
AcDbSymbolTableRecord
100
AcDbViewportTableRecord
  2
*ACTIVE
 70
     0
 10
0.0
 20
0.0
 11
1.0
 21
1.0
 12
0.0
 22
0.0
 13
0.0
 23
0.0
 14
0.5
 24
0.5
 15
0.5
 25
0.5
 16
0.0
 26
0.0
 36
1.0
 17
106.0097221957198
 27
159.2791666268469
 37
0.0
 40
70.2027777602271
 41
0.8391959798994975
 42
50.0
 43
0.0
 44
0.0
 50
0.0
 51
0.0
 71
     0
 72
   100
 73
     1
 74
     3
 75
     0
 76
     0
 77
     0
 78
     0
  0
ENDTAB
  0
TABLE
  2
LTYPE
  5
5
330
0
100
AcDbSymbolTable
 70
     1
  0
LTYPE
  5
14
330
5
100
AcDbSymbolTableRecord
100
AcDbLinetypeTableRecord
  2
BYBLOCK
 70
     0
  3

 72
    65
 73
     0
 40
0.0
  0
LTYPE
  5
15
330
5
100
AcDbSymbolTableRecord
100
AcDbLinetypeTableRecord
  2
BYLAYER
 70
     0
  3

 72
    65
 73
     0
 40
0.0
  0
LTYPE
  5
16
330
5
100
AcDbSymbolTableRecord
100
AcDbLinetypeTableRecord
  2
CONTINUOUS
 70
     0
  3
Solid line
 72
    65
 73
     0
 40
0.0
  0
ENDTAB
  0
TABLE
  2
LAYER
  5
2
330
0
100
AcDbSymbolTable
 70
     2
  0
LAYER
  5
10
330
2
100
AcDbSymbolTableRecord
100
AcDbLayerTableRecord
  2
0
 70
     0
 62
     7
  6
CONTINUOUS
  0
LAYER
  5
3B
330
2
100
AcDbSymbolTableRecord
100
AcDbLayerTableRecord
  2
VRSTVA_1
 70
     0
 62
     7
  6
CONTINUOUS
  0
ENDTAB
  0
TABLE
  2
STYLE
  5
3
330
0
100
AcDbSymbolTable
 70
     1
  0
STYLE
  5
11
330
3
100
AcDbSymbolTableRecord
100
AcDbTextStyleTableRecord
  2
STANDARD
 70
     0
 40
0.0
 41
1.0
 50
0.0
 71
     0
 42
0.2
  3
txt
  4

  0
ENDTAB
  0
TABLE
  2
VIEW
  5
6
330
0
100
AcDbSymbolTable
 70
     0
  0
ENDTAB
  0
TABLE
  2
UCS
  5
7
330
0
100
AcDbSymbolTable
 70
     0
  0
ENDTAB
  0
TABLE
  2
APPID
  5
9
330
0
100
AcDbSymbolTable
 70
     1
  0
APPID
  5
12
330
9
100
AcDbSymbolTableRecord
100
AcDbRegAppTableRecord
  2
ACAD
 70
     0
  0
ENDTAB
  0
TABLE
  2
DIMSTYLE
  5
A
330
0
100
AcDbSymbolTable
 70
     1
  0
DIMSTYLE
105
27
330
A
100
AcDbSymbolTableRecord
100
AcDbDimStyleTableRecord
  2
STANDARD
 70
     0
  3

  4

  5

  6

  7

 40
1.0
 41
0.18
 42
0.0625
 43
0.38
 44
0.18
 45
0.0
 46
0.0
 47
0.0
 48
0.0
140
0.18
141
0.09
142
0.0
143
25.4
144
1.0
145
0.0
146
1.0
147
0.09
 71
     0
 72
     0
 73
     1
 74
     1
 75
     0
 76
     0
 77
     0
 78
     0
170
     0
171
     2
172
     0
173
     0
174
     0
175
     0
176
     0
177
     0
178
     0
270
     2
271
     4
272
     4
273
     2
274
     2
340
11
275
     0
280
     0
281
     0
282
     0
283
     1
284
     0
285
     0
286
     0
287
     3
288
     0
  0
ENDTAB
  0
TABLE
  2
BLOCK_RECORD
  5
1
330
0
100
AcDbSymbolTable
 70
     1
  0
BLOCK_RECORD
  5
1F
330
1
100
AcDbSymbolTableRecord
100
AcDbBlockTableRecord
  2
*MODEL_SPACE
  0
BLOCK_RECORD
  5
1B
330
1
100
AcDbSymbolTableRecord
100
AcDbBlockTableRecord
  2
*PAPER_SPACE
  0
ENDTAB
  0
ENDSEC
  0
SECTION
  2
BLOCKS
  0
BLOCK
  5
20
330
1F
100
AcDbEntity
  8
0
100
AcDbBlockBegin
  2
*MODEL_SPACE
 70
     0
 71
     0
 10
0.0
 20
0.0
 30
0.0
  3
*MODEL_SPACE
  1

  0
ENDBLK
  5
21
330
1F
100
AcDbEntity
  8
0
100
AcDbBlockEnd
  0
BLOCK
  5
1C
330
1B
100
AcDbEntity
 67
     1
  8
0
100
AcDbBlockBegin
  2
*PAPER_SPACE
 70
     0
 71
     0
 10
0.0
 20
0.0
 30
0.0
  3
*PAPER_SPACE
  1

  0
ENDBLK
  5
1D
330
1B
100
AcDbEntity
 67
     1
  8
0
100
AcDbBlockEnd
  0
ENDSEC
  0
SECTION
  2
ENTITIES
  0
POLYLINE
  5
3C
330
1F
100
AcDbEntity
  8
VRSTVA_1
100
AcDb2dPolyline
 66
     1
 10
0.0
 20
0.0
 30
0.0
  0
VERTEX
  5
3D
330
3C
100
AcDbEntity
  8
VRSTVA_1
100
AcDbVertex
100
AcDb2dVertex
 10
121.4392713455082
 20
151.5201225749672
 30
0.0
  0
VERTEX
  5
3E
330
3C
100
AcDbEntity
  8
VRSTVA_1
100
AcDbVertex
100
AcDb2dVertex
 10
120.4140109290979
 20
151.5201225749672
 30
0.0
  0
VERTEX
  5
3F
330
3C
100
AcDbEntity
  8
VRSTVA_1
100
AcDbVertex
100
AcDb2dVertex
 10
121.4392713455082
 20
150.9683905330044
 30
0.0
  0
VERTEX
  5
40
330
3C
100
AcDbEntity
  8
VRSTVA_1
100
AcDbVertex
100
AcDb2dVertex
 10
121.4392713455082
 20
151.5201225749672
 30
0.0
  0
SEQEND
  5
41
330
3C
100
AcDbEntity
  8
VRSTVA_1
  0
POLYLINE
  5
42
330
1F
100
AcDbEntity
  8
VRSTVA_1
100
AcDb2dPolyline
 66
     1
 10
0.0
 20
0.0
 30
0.0
  0
VERTEX
  5
43
330
42
100
AcDbEntity
  8
VRSTVA_1
100
AcDbVertex
100
AcDb2dVertex
 10
122.5482475822102
 20
151.5201225749672
 30
0.0
  0
VERTEX
  5
44
330
42
100
AcDbEntity
  8
VRSTVA_1
100
AcDbVertex
100
AcDb2dVertex
 10
121.9446668531944
 20
151.5201225749672
 30
0.0
  0
VERTEX
  5
45
330
42
100
AcDbEntity
  8
VRSTVA_1
100
AcDbVertex
100
AcDb2dVertex
 10
121.9446668531944
 20
150.5377535973482
 30
0.0
  0
VERTEX
  5
46
330
42
100
AcDbEntity
  8
VRSTVA_1
100
AcDbVertex
100
AcDb2dVertex
 10
121.4413384027994
 20
150.5377535973482
 30
0.0
  0
VERTEX
  5
47
330
42
100
AcDbEntity
  8
VRSTVA_1
100
AcDbVertex
100
AcDb2dVertex
 10
119.5362005994562
 20
151.579033707765
 30
0.0
  0
VERTEX
  5
48
330
42
100
AcDbEntity
  8
VRSTVA_1
100
AcDbVertex
100
AcDb2dVertex
 10
119.5362005994562
 20
151.9654011664358
 30
0.0
  0
VERTEX
  5
49
330
42
100
AcDbEntity
  8
VRSTVA_1
100
AcDbVertex
100
AcDb2dVertex
 10
121.4392713455082
 20
151.9654011664358
 30
0.0
  0
VERTEX
  5
4A
330
42
100
AcDbEntity
  8
VRSTVA_1
100
AcDbVertex
100
AcDb2dVertex
 10
121.4392713455082
 20
152.2634019259098
 30
0.0
  0
VERTEX
  5
4B
330
42
100
AcDbEntity
  8
VRSTVA_1
100
AcDbVertex
100
AcDb2dVertex
 10
121.9446668531944
 20
152.2634019259098
 30
0.0
  0
VERTEX
  5
4C
330
42
100
AcDbEntity
  8
VRSTVA_1
100
AcDbVertex
100
AcDb2dVertex
 10
121.9446668531944
 20
151.9654011664358
 30
0.0
  0
VERTEX
  5
4D
330
42
100
AcDbEntity
  8
VRSTVA_1
100
AcDbVertex
100
AcDb2dVertex
 10
122.5482475822102
 20
151.9654011664358
 30
0.0
  0
VERTEX
  5
4E
330
42
100
AcDbEntity
  8
VRSTVA_1
100
AcDbVertex
100
AcDb2dVertex
 10
122.5482475822102
 20
151.5201225749672
 30
0.0
  0
SEQEND
  5
4F
330
42
100
AcDbEntity
  8
VRSTVA_1
  0
HATCH
  5
50
330
1F
100
AcDbEntity
  8
VRSTVA_1
 62
     7
100
AcDbHatch
 10
0.0
 20
0.0
 30
0.0
210
0.0
220
0.0
230
1.0
  2
SOLID
 70
     1
 71
     0
 91
        2
 92
        1
 93
        3
 72
     1
 10
121.4392713455082
 20
151.5201225749672
 11
120.4140109290979
 21
151.5201225749672
 72
     1
 10
120.4140109290979
 20
151.5201225749672
 11
121.4392713455082
 21
150.9683905330044
 72
     1
 10
121.4392713455082
 20
150.9683905330044
 11
121.4392713455082
 21
151.5201225749672
 97
        0
 92
        1
 93
       11
 72
     1
 10
122.5482475822102
 20
151.5201225749672
 11
121.9446668531944
 21
151.5201225749672
 72
     1
 10
121.9446668531944
 20
151.5201225749672
 11
121.9446668531944
 21
150.5377535973482
 72
     1
 10
121.9446668531944
 20
150.5377535973482
 11
121.4413384027994
 21
150.5377535973482
 72
     1
 10
121.4413384027994
 20
150.5377535973482
 11
119.5362005994562
 21
151.579033707765
 72
     1
 10
119.5362005994562
 20
151.579033707765
 11
119.5362005994562
 21
151.9654011664358
 72
     1
 10
119.5362005994562
 20
151.9654011664358
 11
121.4392713455082
 21
151.9654011664358
 72
     1
 10
121.4392713455082
 20
151.9654011664358
 11
121.4392713455082
 21
152.2634019259098
 72
     1
 10
121.4392713455082
 20
152.2634019259098
 11
121.9446668531944
 21
152.2634019259098
 72
     1
 10
121.9446668531944
 20
152.2634019259098
 11
121.9446668531944
 21
151.9654011664358
 72
     1
 10
121.9446668531944
 20
151.9654011664358
 11
122.5482475822102
 21
151.9654011664358
 72
     1
 10
122.5482475822102
 20
151.9654011664358
 11
122.5482475822102
 21
151.5201225749672
 97
        0
 75
     0
 76
     1
 98
        0
  0
POLYLINE
  5
51
330
1F
100
AcDbEntity
  8
VRSTVA_1
100
AcDb2dPolyline
 66
     1
 10
0.0
 20
0.0
 30
0.0
  0
VERTEX
  5
52
330
51
100
AcDbEntity
  8
VRSTVA_1
100
AcDbVertex
100
AcDb2dVertex
 10
122.0142577819964
 20
154.0362480626194
 30
0.0
  0
VERTEX
  5
53
330
51
100
AcDbEntity
  8
VRSTVA_1
100
AcDbVertex
100
AcDb2dVertex
 10
122.5482475822102
 20
154.0362480626194
 30
0.0
  0
VERTEX
  5
54
330
51
100
AcDbEntity
  8
VRSTVA_1
100
AcDbVertex
100
AcDb2dVertex
 10
122.5482475822102
 20
152.423598865974
 30
0.0
  0
VERTEX
  5
55
330
51
100
AcDbEntity
  8
VRSTVA_1
100
AcDbVertex
100
AcDb2dVertex
 10
122.2536919182213
 20
152.476136572124
 30
0.0
  0
VERTEX
  5
56
330
51
100
AcDbEntity
  8
VRSTVA_1
100
AcDbVertex
100
AcDb2dVertex
 10
121.9753282030131
 20
152.5810397296499
 30
0.0
  0
VERTEX
  5
57
330
51
100
AcDbEntity
  8
VRSTVA_1
100
AcDbVertex
100
AcDb2dVertex
 10
121.7744791362231
 20
152.69662268318
 30
0.0
  0
VERTEX
  5
58
330
51
100
AcDbEntity
  8
VRSTVA_1
100
AcDbVertex
100
AcDb2dVertex
 10
121.5343559809011
 20
152.869221966991
 30
0.0
  0
VERTEX
  5
59
330
51
100
AcDbEntity
  8
VRSTVA_1
100
AcDbVertex
100
AcDb2dVertex
 10
120.9511013152483
 20
153.3489515133121
 30
0.0
  0
VERTEX
  5
5A
330
51
100
AcDbEntity
  8
VRSTVA_1
100
AcDbVertex
100
AcDb2dVertex
 10
120.7640326303993
 20
153.479520632203
 30
0.0
  0
VERTEX
  5
5B
330
51
100
AcDbEntity
  8
VRSTVA_1
100
AcDbVertex
100
AcDb2dVertex
 10
120.5869547224574
 20
153.5508341087477
 30
0.0
  0
VERTEX
  5
5C
330
51
100
AcDbEntity
  8
VRSTVA_1
100
AcDbVertex
100
AcDb2dVertex
 10
120.4119438718067
 20
153.5747775223702
 30
0.0
  0
VERTEX
  5
5D
330
51
100
AcDbEntity
  8
VRSTVA_1
100
AcDbVertex
100
AcDb2dVertex
 10
120.1173882078179
 20
153.4910617020786
 30
0.0
  0
VERTEX
  5
5E
330
51
100
AcDbEntity
  8
VRSTVA_1
100
AcDbVertex
100
AcDb2dVertex
 10
120.0130018146148
 20
153.2636854000521
 30
0.0
  0
VERTEX
  5
5F
330
51
100
AcDbEntity
  8
VRSTVA_1
100
AcDbVertex
100
AcDb2dVertex
 10
120.1215223224002
 20
153.0342420407345
 30
0.0
  0
VERTEX
  5
60
330
51
100
AcDbEntity
  8
VRSTVA_1
100
AcDbVertex
100
AcDb2dVertex
 10
120.2658718232321
 20
152.9672349335464
 30
0.0
  0
VERTEX
  5
61
330
51
100
AcDbEntity
  8
VRSTVA_1
100
AcDbVertex
100
AcDb2dVertex
 10
120.4818793101573
 20
152.9362290741792
 30
0.0
  0
VERTEX
  5
62
330
51
100
AcDbEntity
  8
VRSTVA_1
100
AcDbVertex
100
AcDb2dVertex
 10
120.4243462155536
 20
152.4776868650924
 30
0.0
  0
VERTEX
  5
63
330
51
100
AcDbEntity
  8
VRSTVA_1
100
AcDbVertex
100
AcDb2dVertex
 10
120.1373697616323
 20
152.5245401636918
 30
0.0
  0
VERTEX
  5
64
330
51
100
AcDbEntity
  8
VRSTVA_1
100
AcDbVertex
100
AcDb2dVertex
 10
119.9106824787029
 20
152.6103230412745
 30
0.0
  0
VERTEX
  5
65
330
51
100
AcDbEntity
  8
VRSTVA_1
100
AcDbVertex
100
AcDb2dVertex
 10
119.7429063285712
 20
152.7348632430663
 30
0.0
  0
VERTEX
  5
66
330
51
100
AcDbEntity
  8
VRSTVA_1
100
AcDbVertex
100
AcDb2dVertex
 10
119.6278401393639
 20
152.8907538137738
 30
0.0
  0
VERTEX
  5
67
330
51
100
AcDbEntity
  8
VRSTVA_1
100
AcDbVertex
100
AcDb2dVertex
 10
119.5592827392074
 20
153.0709323076524
 30
0.0
  0
VERTEX
  5
68
330
51
100
AcDbEntity
  8
VRSTVA_1
100
AcDbVertex
100
AcDb2dVertex
 10
119.5362005994562
 20
153.2748819603792
 30
0.0
  0
VERTEX
  5
69
330
51
100
AcDbEntity
  8
VRSTVA_1
100
AcDbVertex
100
AcDb2dVertex
 10
119.5627278346927
 20
153.4950235618867
 30
0.0
  0
VERTEX
  5
6A
330
51
100
AcDbEntity
  8
VRSTVA_1
100
AcDbVertex
100
AcDb2dVertex
 10
119.6423095404019
 20
153.6808864633159
 30
0.0
  0
VERTEX
  5
6B
330
51
100
AcDbEntity
  8
VRSTVA_1
100
AcDbVertex
100
AcDb2dVertex
 10
119.7756347356811
 20
153.8333319385382
 30
0.0
  0
VERTEX
  5
6C
330
51
100
AcDbEntity
  8
VRSTVA_1
100
AcDbVertex
100
AcDb2dVertex
 10
120.0443521835306
 20
153.985432904212
 30
0.0
  0
VERTEX
  5
6D
330
51
100
AcDbEntity
  8
VRSTVA_1
100
AcDbVertex
100
AcDb2dVertex
 10
120.3709472355323
 20
154.0362480626194
 30
0.0
  0
VERTEX
  5
6E
330
51
100
AcDbEntity
  8
VRSTVA_1
100
AcDbVertex
100
AcDb2dVertex
 10
120.5693847354827
 20
154.0217786615814
 30
0.0
  0
VERTEX
  5
6F
330
51
100
AcDbEntity
  8
VRSTVA_1
100
AcDbVertex
100
AcDb2dVertex
 10
120.7578314585258
 20
153.9773369298216
 30
0.0
  0
VERTEX
  5
70
330
51
100
AcDbEntity
  8
VRSTVA_1
100
AcDbVertex
100
AcDb2dVertex
 10
120.9445556338264
 20
153.902750612566
 30
0.0
  0
VERTEX
  5
71
330
51
100
AcDbEntity
  8
VRSTVA_1
100
AcDbVertex
100
AcDb2dVertex
 10
121.1402370573886
 20
153.7938855952321
 30
0.0
  0
VERTEX
  5
72
330
51
100
AcDbEntity
  8
VRSTVA_1
100
AcDbVertex
100
AcDb2dVertex
 10
121.3025010547438
 20
153.6770968582821
 30
0.0
  0
VERTEX
  5
73
330
51
100
AcDbEntity
  8
VRSTVA_1
100
AcDbVertex
100
AcDb2dVertex
 10
121.5229871657998
 20
153.4929565045955
 30
0.0
  0
VERTEX
  5
74
330
51
100
AcDbEntity
  8
VRSTVA_1
100
AcDbVertex
100
AcDb2dVertex
 10
121.7310709331089
 20
153.3146728132338
 30
0.0
  0
VERTEX
  5
75
330
51
100
AcDbEntity
  8
VRSTVA_1
100
AcDbVertex
100
AcDb2dVertex
 10
121.8547498610294
 20
153.2159708275814
 30
0.0
  0
VERTEX
  5
76
330
51
100
AcDbEntity
  8
VRSTVA_1
100
AcDbVertex
100
AcDb2dVertex
 10
122.0142577819964
 20
153.1227809947054
 30
0.0
  0
VERTEX
  5
77
330
51
100
AcDbEntity
  8
VRSTVA_1
100
AcDbVertex
100
AcDb2dVertex
 10
122.0142577819964
 20
154.0362480626194
 30
0.0
  0
SEQEND
  5
78
330
51
100
AcDbEntity
  8
VRSTVA_1
  0
HATCH
  5
79
330
1F
100
AcDbEntity
  8
VRSTVA_1
 62
     7
100
AcDbHatch
 10
0.0
 20
0.0
 30
0.0
210
0.0
220
0.0
230
1.0
  2
SOLID
 70
     1
 71
     0
 91
        1
 92
        1
 93
       37
 72
     1
 10
122.0142577819964
 20
154.0362480626194
 11
122.5482475822102
 21
154.0362480626194
 72
     1
 10
122.5482475822102
 20
154.0362480626194
 11
122.5482475822102
 21
152.423598865974
 72
     1
 10
122.5482475822102
 20
152.423598865974
 11
122.2536919182213
 21
152.476136572124
 72
     1
 10
122.2536919182213
 20
152.476136572124
 11
121.9753282030131
 21
152.5810397296499
 72
     1
 10
121.9753282030131
 20
152.5810397296499
 11
121.7744791362231
 21
152.69662268318
 72
     1
 10
121.7744791362231
 20
152.69662268318
 11
121.5343559809011
 21
152.869221966991
 72
     1
 10
121.5343559809011
 20
152.869221966991
 11
120.9511013152483
 21
153.3489515133121
 72
     1
 10
120.9511013152483
 20
153.3489515133121
 11
120.7640326303993
 21
153.479520632203
 72
     1
 10
120.7640326303993
 20
153.479520632203
 11
120.5869547224574
 21
153.5508341087477
 72
     1
 10
120.5869547224574
 20
153.5508341087477
 11
120.4119438718067
 21
153.5747775223702
 72
     1
 10
120.4119438718067
 20
153.5747775223702
 11
120.1173882078179
 21
153.4910617020786
 72
     1
 10
120.1173882078179
 20
153.4910617020786
 11
120.0130018146148
 21
153.2636854000521
 72
     1
 10
120.0130018146148
 20
153.2636854000521
 11
120.1215223224002
 21
153.0342420407345
 72
     1
 10
120.1215223224002
 20
153.0342420407345
 11
120.2658718232321
 21
152.9672349335464
 72
     1
 10
120.2658718232321
 20
152.9672349335464
 11
120.4818793101573
 21
152.9362290741792
 72
     1
 10
120.4818793101573
 20
152.9362290741792
 11
120.4243462155536
 21
152.4776868650924
 72
     1
 10
120.4243462155536
 20
152.4776868650924
 11
120.1373697616323
 21
152.5245401636918
 72
     1
 10
120.1373697616323
 20
152.5245401636918
 11
119.9106824787029
 21
152.6103230412745
 72
     1
 10
119.9106824787029
 20
152.6103230412745
 11
119.7429063285712
 21
152.7348632430663
 72
     1
 10
119.7429063285712
 20
152.7348632430663
 11
119.6278401393639
 21
152.8907538137738
 72
     1
 10
119.6278401393639
 20
152.8907538137738
 11
119.5592827392074
 21
153.0709323076524
 72
     1
 10
119.5592827392074
 20
153.0709323076524
 11
119.5362005994562
 21
153.2748819603792
 72
     1
 10
119.5362005994562
 20
153.2748819603792
 11
119.5627278346927
 21
153.4950235618867
 72
     1
 10
119.5627278346927
 20
153.4950235618867
 11
119.6423095404019
 21
153.6808864633159
 72
     1
 10
119.6423095404019
 20
153.6808864633159
 11
119.7756347356811
 21
153.8333319385382
 72
     1
 10
119.7756347356811
 20
153.8333319385382
 11
120.0443521835306
 21
153.985432904212
 72
     1
 10
120.0443521835306
 20
153.985432904212
 11
120.3709472355323
 21
154.0362480626194
 72
     1
 10
120.3709472355323
 20
154.0362480626194
 11
120.5693847354827
 21
154.0217786615814
 72
     1
 10
120.5693847354827
 20
154.0217786615814
 11
120.7578314585258
 21
153.9773369298216
 72
     1
 10
120.7578314585258
 20
153.9773369298216
 11
120.9445556338264
 21
153.902750612566
 72
     1
 10
120.9445556338264
 20
153.902750612566
 11
121.1402370573886
 21
153.7938855952321
 72
     1
 10
121.1402370573886
 20
153.7938855952321
 11
121.3025010547438
 21
153.6770968582821
 72
     1
 10
121.3025010547438
 20
153.6770968582821
 11
121.5229871657998
 21
153.4929565045955
 72
     1
 10
121.5229871657998
 20
153.4929565045955
 11
121.7310709331089
 21
153.3146728132338
 72
     1
 10
121.7310709331089
 20
153.3146728132338
 11
121.8547498610294
 21
153.2159708275814
 72
     1
 10
121.8547498610294
 20
153.2159708275814
 11
122.0142577819964
 21
153.1227809947054
 72
     1
 10
122.0142577819964
 20
153.1227809947054
 11
122.0142577819964
 21
154.0362480626194
 97
        0
 75
     0
 76
     1
 98
        0
  0
POLYLINE
  5
7A
330
1F
100
AcDbEntity
  8
VRSTVA_1
100
AcDb2dPolyline
 66
     1
 10
0.0
 20
0.0
 30
0.0
  0
VERTEX
  5
7B
330
7A
100
AcDbEntity
  8
VRSTVA_1
100
AcDbVertex
100
AcDb2dVertex
 10
121.973261145722
 20
154.4341565911658
 30
0.0
  0
VERTEX
  5
7C
330
7A
100
AcDbEntity
  8
VRSTVA_1
100
AcDbVertex
100
AcDb2dVertex
 10
121.973261145722
 20
154.8940768384466
 30
0.0
  0
VERTEX
  5
7D
330
7A
100
AcDbEntity
  8
VRSTVA_1
100
AcDbVertex
100
AcDb2dVertex
 10
122.3846055466608
 20
154.8940768384466
 30
0.0
  0
VERTEX
  5
7E
330
7A
100
AcDbEntity
  8
VRSTVA_1
100
AcDbVertex
100
AcDb2dVertex
 10
122.607847734105
 20
154.8856363545078
 30
0.0
  0
VERTEX
  5
7F
330
7A
100
AcDbEntity
  8
VRSTVA_1
100
AcDbVertex
100
AcDb2dVertex
 10
122.7776909415278
 20
154.8599703931426
 30
0.0
  0
VERTEX
  5
80
330
7A
100
AcDbEntity
  8
VRSTVA_1
100
AcDbVertex
100
AcDb2dVertex
 10
123.0374511411156
 20
154.7287122551546
 30
0.0
  0
VERTEX
  5
81
330
7A
100
AcDbEntity
  8
VRSTVA_1
100
AcDbVertex
100
AcDb2dVertex
 10
123.2176296349942
 20
154.4863497877673
 30
0.0
  0
VERTEX
  5
82
330
7A
100
AcDbEntity
  8
VRSTVA_1
100
AcDbVertex
100
AcDb2dVertex
 10
122.9802625560605
 20
154.3964327956023
 30
0.0
  0
VERTEX
  5
83
330
7A
100
AcDbEntity
  8
VRSTVA_1
100
AcDbVertex
100
AcDb2dVertex
 10
122.8228216923846
 20
154.5946980407784
 30
0.0
  0
VERTEX
  5
84
330
7A
100
AcDbEntity
  8
VRSTVA_1
100
AcDbVertex
100
AcDb2dVertex
 10
122.5482475822102
 20
154.6567097595129
 30
0.0
  0
VERTEX
  5
85
330
7A
100
AcDbEntity
  8
VRSTVA_1
100
AcDbVertex
100
AcDb2dVertex
 10
122.5482475822102
 20
154.4341565911658
 30
0.0
  0
VERTEX
  5
86
330
7A
100
AcDbEntity
  8
VRSTVA_1
100
AcDbVertex
100
AcDb2dVertex
 10
121.973261145722
 20
154.4341565911658
 30
0.0
  0
SEQEND
  5
87
330
7A
100
AcDbEntity
  8
VRSTVA_1
  0
HATCH
  5
88
330
1F
100
AcDbEntity
  8
VRSTVA_1
 62
     7
100
AcDbHatch
 10
0.0
 20
0.0
 30
0.0
210
0.0
220
0.0
230
1.0
  2
SOLID
 70
     1
 71
     0
 91
        1
 92
        1
 93
       11
 72
     1
 10
121.973261145722
 20
154.4341565911658
 11
121.973261145722
 21
154.8940768384466
 72
     1
 10
121.973261145722
 20
154.8940768384466
 11
122.3846055466608
 21
154.8940768384466
 72
     1
 10
122.3846055466608
 20
154.8940768384466
 11
122.607847734105
 21
154.8856363545078
 72
     1
 10
122.607847734105
 20
154.8856363545078
 11
122.7776909415278
 21
154.8599703931426
 72
     1
 10
122.7776909415278
 20
154.8599703931426
 11
123.0374511411156
 21
154.7287122551546
 72
     1
 10
123.0374511411156
 20
154.7287122551546
 11
123.2176296349942
 21
154.4863497877673
 72
     1
 10
123.2176296349942
 20
154.4863497877673
 11
122.9802625560605
 21
154.3964327956023
 72
     1
 10
122.9802625560605
 20
154.3964327956023
 11
122.8228216923846
 21
154.5946980407784
 72
     1
 10
122.8228216923846
 20
154.5946980407784
 11
122.5482475822102
 21
154.6567097595129
 72
     1
 10
122.5482475822102
 20
154.6567097595129
 11
122.5482475822102
 21
154.4341565911658
 72
     1
 10
122.5482475822102
 20
154.4341565911658
 11
121.973261145722
 21
154.4341565911658
 97
        0
 75
     0
 76
     1
 98
        0
  0
POLYLINE
  5
89
330
1F
100
AcDbEntity
  8
VRSTVA_1
100
AcDb2dPolyline
 66
     1
 10
0.0
 20
0.0
 30
0.0
  0
VERTEX
  5
8A
330
89
100
AcDbEntity
  8
VRSTVA_1
100
AcDbVertex
100
AcDb2dVertex
 10
121.7772352126113
 20
155.285439685571
 30
0.0
  0
VERTEX
  5
8B
330
89
100
AcDbEntity
  8
VRSTVA_1
100
AcDbVertex
100
AcDb2dVertex
 10
121.7176350607164
 20
155.7436373851092
 30
0.0
  0
VERTEX
  5
8C
330
89
100
AcDbEntity
  8
VRSTVA_1
100
AcDbVertex
100
AcDb2dVertex
 10
122.0266601257433
 20
155.8600816125107
 30
0.0
  0
VERTEX
  5
8D
330
89
100
AcDbEntity
  8
VRSTVA_1
100
AcDbVertex
100
AcDb2dVertex
 10
122.1389702385625
 20
156.0826347808578
 30
0.0
  0
VERTEX
  5
8E
330
89
100
AcDbEntity
  8
VRSTVA_1
100
AcDbVertex
100
AcDb2dVertex
 10
121.9935872090849
 20
156.3267197959878
 30
0.0
  0
VERTEX
  5
8F
330
89
100
AcDbEntity
  8
VRSTVA_1
100
AcDbVertex
100
AcDb2dVertex
 10
121.8096191101726
 20
156.4014783680177
 30
0.0
  0
VERTEX
  5
90
330
89
100
AcDbEntity
  8
VRSTVA_1
100
AcDbVertex
100
AcDb2dVertex
 10
121.5515814583274
 20
156.42662756506
 30
0.0
  0
VERTEX
  5
91
330
89
100
AcDbEntity
  8
VRSTVA_1
100
AcDbVertex
100
AcDb2dVertex
 10
121.3104247743599
 20
156.4014783680177
 30
0.0
  0
VERTEX
  5
92
330
89
100
AcDbEntity
  8
VRSTVA_1
100
AcDbVertex
100
AcDb2dVertex
 10
121.1385145096459
 20
156.3267197959878
 30
0.0
  0
VERTEX
  5
93
330
89
100
AcDbEntity
  8
VRSTVA_1
100
AcDbVertex
100
AcDb2dVertex
 10
120.9993326520418
 20
156.0695434180139
 30
0.0
  0
VERTEX
  5
94
330
89
100
AcDbEntity
  8
VRSTVA_1
100
AcDbVertex
100
AcDb2dVertex
 10
121.0537651607088
 20
155.8816134592935
 30
0.0
  0
VERTEX
  5
95
330
89
100
AcDbEntity
  8
VRSTVA_1
100
AcDbVertex
100
AcDb2dVertex
 10
121.2184407249037
 20
155.7143540734846
 30
0.0
  0
VERTEX
  5
96
330
89
100
AcDbEntity
  8
VRSTVA_1
100
AcDbVertex
100
AcDb2dVertex
 10
121.1509168533928
 20
155.3410779776578
 30
0.0
  0
VERTEX
  5
97
330
89
100
AcDbEntity
  8
VRSTVA_1
100
AcDbVertex
100
AcDb2dVertex
 10
119.5895995794776
 20
155.5767225088489
 30
0.0
  0
VERTEX
  5
98
330
89
100
AcDbEntity
  8
VRSTVA_1
100
AcDbVertex
100
AcDb2dVertex
 10
119.5895995794776
 20
156.7931857246906
 30
0.0
  0
VERTEX
  5
99
330
89
100
AcDbEntity
  8
VRSTVA_1
100
AcDbVertex
100
AcDb2dVertex
 10
120.1273789847251
 20
156.7931857246906
 30
0.0
  0
VERTEX
  5
9A
330
89
100
AcDbEntity
  8
VRSTVA_1
100
AcDbVertex
100
AcDb2dVertex
 10
120.1273789847251
 20
155.9257106815047
 30
0.0
  0
VERTEX
  5
9B
330
89
100
AcDbEntity
  8
VRSTVA_1
100
AcDbVertex
100
AcDb2dVertex
 10
120.6372531165421
 20
155.8533636763144
 30
0.0
  0
VERTEX
  5
9C
330
89
100
AcDbEntity
  8
VRSTVA_1
100
AcDbVertex
100
AcDb2dVertex
 10
120.5649061113518
 20
156.0089097374735
 30
0.0
  0
VERTEX
  5
9D
330
89
100
AcDbEntity
  8
VRSTVA_1
100
AcDbVertex
100
AcDb2dVertex
 10
120.5411349525036
 20
156.1677286393435
 30
0.0
  0
VERTEX
  5
9E
330
89
100
AcDbEntity
  8
VRSTVA_1
100
AcDbVertex
100
AcDb2dVertex
 10
120.5721408118709
 20
156.3616875151631
 30
0.0
  0
VERTEX
  5
9F
330
89
100
AcDbEntity
  8
VRSTVA_1
100
AcDbVertex
100
AcDb2dVertex
 10
120.6644693708756
 20
156.5346313085226
 30
0.0
  0
VERTEX
  5
A0
330
89
100
AcDbEntity
  8
VRSTVA_1
100
AcDbVertex
100
AcDb2dVertex
 10
120.8194986677118
 20
156.6865600194221
 30
0.0
  0
VERTEX
  5
A1
330
89
100
AcDbEntity
  8
VRSTVA_1
100
AcDbVertex
100
AcDb2dVertex
 10
121.0231038108901
 20
156.8050713041147
 30
0.0
  0
VERTEX
  5
A2
330
89
100
AcDbEntity
  8
VRSTVA_1
100
AcDbVertex
100
AcDb2dVertex
 10
121.263915985309
 20
156.8760402711109
 30
0.0
  0
VERTEX
  5
A3
330
89
100
AcDbEntity
  8
VRSTVA_1
100
AcDbVertex
100
AcDb2dVertex
 10
121.5415906814202
 20
156.8996391751848
 30
0.0
  0
VERTEX
  5
A4
330
89
100
AcDbEntity
  8
VRSTVA_1
100
AcDbVertex
100
AcDb2dVertex
 10
121.7796467794509
 20
156.8806911500159
 30
0.0
  0
VERTEX
  5
A5
330
89
100
AcDbEntity
  8
VRSTVA_1
100
AcDbVertex
100
AcDb2dVertex
 10
122.0001328905069
 20
156.8231580554123
 30
0.0
  0
VERTEX
  5
A6
330
89
100
AcDbEntity
  8
VRSTVA_1
100
AcDbVertex
100
AcDb2dVertex
 10
122.2027045050396
 20
156.7275566556966
 30
0.0
  0
VERTEX
  5
A7
330
89
100
AcDbEntity
  8
VRSTVA_1
100
AcDbVertex
100
AcDb2dVertex
 10
122.4231906160956
 20
156.5515122764003
 30
0.0
  0
VERTEX
  5
A8
330
89
100
AcDbEntity
  8
VRSTVA_1
100
AcDbVertex
100
AcDb2dVertex
 10
122.5554822827292
 20
156.3348157703781
 30
0.0
  0
VERTEX
  5
A9
330
89
100
AcDbEntity
  8
VRSTVA_1
100
AcDbVertex
100
AcDb2dVertex
 10
122.5995795049404
 20
156.0776393924042
 30
0.0
  0
VERTEX
  5
AA
330
89
100
AcDbEntity
  8
VRSTVA_1
100
AcDbVertex
100
AcDb2dVertex
 10
122.5747748174466
 20
155.8699001346436
 30
0.0
  0
VERTEX
  5
AB
330
89
100
AcDbEntity
  8
VRSTVA_1
100
AcDbVertex
100
AcDb2dVertex
 10
122.5003607549652
 20
155.6893771312166
 30
0.0
  0
VERTEX
  5
AC
330
89
100
AcDbEntity
  8
VRSTVA_1
100
AcDbVertex
100
AcDb2dVertex
 10
122.3763373174962
 20
155.5358981273487
 30
0.0
  0
VERTEX
  5
AD
330
89
100
AcDbEntity
  8
VRSTVA_1
100
AcDbVertex
100
AcDb2dVertex
 10
122.2106282246557
 20
155.4148030210421
 30
0.0
  0
VERTEX
  5
AE
330
89
100
AcDbEntity
  8
VRSTVA_1
100
AcDbVertex
100
AcDb2dVertex
 10
122.0111571960597
 20
155.3316039650734
 30
0.0
  0
VERTEX
  5
AF
330
89
100
AcDbEntity
  8
VRSTVA_1
100
AcDbVertex
100
AcDb2dVertex
 10
121.7772352126113
 20
155.285439685571
 30
0.0
  0
SEQEND
  5
B0
330
89
100
AcDbEntity
  8
VRSTVA_1
  0
HATCH
  5
B1
330
1F
100
AcDbEntity
  8
VRSTVA_1
 62
     7
100
AcDbHatch
 10
0.0
 20
0.0
 30
0.0
210
0.0
220
0.0
230
1.0
  2
SOLID
 70
     1
 71
     0
 91
        1
 92
        1
 93
       37
 72
     1
 10
121.7772352126113
 20
155.285439685571
 11
121.7176350607164
 21
155.7436373851092
 72
     1
 10
121.7176350607164
 20
155.7436373851092
 11
122.0266601257433
 21
155.8600816125107
 72
     1
 10
122.0266601257433
 20
155.8600816125107
 11
122.1389702385625
 21
156.0826347808578
 72
     1
 10
122.1389702385625
 20
156.0826347808578
 11
121.9935872090849
 21
156.3267197959878
 72
     1
 10
121.9935872090849
 20
156.3267197959878
 11
121.8096191101726
 21
156.4014783680177
 72
     1
 10
121.8096191101726
 20
156.4014783680177
 11
121.5515814583274
 21
156.42662756506
 72
     1
 10
121.5515814583274
 20
156.42662756506
 11
121.3104247743599
 21
156.4014783680177
 72
     1
 10
121.3104247743599
 20
156.4014783680177
 11
121.1385145096459
 21
156.3267197959878
 72
     1
 10
121.1385145096459
 20
156.3267197959878
 11
120.9993326520418
 21
156.0695434180139
 72
     1
 10
120.9993326520418
 20
156.0695434180139
 11
121.0537651607088
 21
155.8816134592935
 72
     1
 10
121.0537651607088
 20
155.8816134592935
 11
121.2184407249037
 21
155.7143540734846
 72
     1
 10
121.2184407249037
 20
155.7143540734846
 11
121.1509168533928
 21
155.3410779776578
 72
     1
 10
121.1509168533928
 20
155.3410779776578
 11
119.5895995794776
 21
155.5767225088489
 72
     1
 10
119.5895995794776
 20
155.5767225088489
 11
119.5895995794776
 21
156.7931857246906
 72
     1
 10
119.5895995794776
 20
156.7931857246906
 11
120.1273789847251
 21
156.7931857246906
 72
     1
 10
120.1273789847251
 20
156.7931857246906
 11
120.1273789847251
 21
155.9257106815047
 72
     1
 10
120.1273789847251
 20
155.9257106815047
 11
120.6372531165421
 21
155.8533636763144
 72
     1
 10
120.6372531165421
 20
155.8533636763144
 11
120.5649061113518
 21
156.0089097374735
 72
     1
 10
120.5649061113518
 20
156.0089097374735
 11
120.5411349525036
 21
156.1677286393435
 72
     1
 10
120.5411349525036
 20
156.1677286393435
 11
120.5721408118709
 21
156.3616875151631
 72
     1
 10
120.5721408118709
 20
156.3616875151631
 11
120.6644693708756
 21
156.5346313085226
 72
     1
 10
120.6644693708756
 20
156.5346313085226
 11
120.8194986677118
 21
156.6865600194221
 72
     1
 10
120.8194986677118
 20
156.6865600194221
 11
121.0231038108901
 21
156.8050713041147
 72
     1
 10
121.0231038108901
 20
156.8050713041147
 11
121.263915985309
 21
156.8760402711109
 72
     1
 10
121.263915985309
 20
156.8760402711109
 11
121.5415906814202
 21
156.8996391751848
 72
     1
 10
121.5415906814202
 20
156.8996391751848
 11
121.7796467794509
 21
156.8806911500159
 72
     1
 10
121.7796467794509
 20
156.8806911500159
 11
122.0001328905069
 21
156.8231580554123
 72
     1
 10
122.0001328905069
 20
156.8231580554123
 11
122.2027045050396
 21
156.7275566556966
 72
     1
 10
122.2027045050396
 20
156.7275566556966
 11
122.4231906160956
 21
156.5515122764003
 72
     1
 10
122.4231906160956
 20
156.5515122764003
 11
122.5554822827292
 21
156.3348157703781
 72
     1
 10
122.5554822827292
 20
156.3348157703781
 11
122.5995795049404
 21
156.0776393924042
 72
     1
 10
122.5995795049404
 20
156.0776393924042
 11
122.5747748174466
 21
155.8699001346436
 72
     1
 10
122.5747748174466
 20
155.8699001346436
 11
122.5003607549652
 21
155.6893771312166
 72
     1
 10
122.5003607549652
 20
155.6893771312166
 11
122.3763373174962
 21
155.5358981273487
 72
     1
 10
122.3763373174962
 20
155.5358981273487
 11
122.2106282246557
 21
155.4148030210421
 72
     1
 10
122.2106282246557
 20
155.4148030210421
 11
122.0111571960597
 21
155.3316039650734
 72
     1
 10
122.0111571960597
 20
155.3316039650734
 11
121.7772352126113
 21
155.285439685571
 97
        0
 75
     0
 76
     1
 98
        0
  0
POLYLINE
  5
B2
330
1F
100
AcDbEntity
  8
VRSTVA_1
100
AcDb2dPolyline
 66
     1
 10
0.0
 20
0.0
 30
0.0
  0
VERTEX
  5
B3
330
B2
100
AcDbEntity
  8
VRSTVA_1
100
AcDbVertex
100
AcDb2dVertex
 10
101.8871486832956
 20
185.9421386253895
 30
0.0
  0
VERTEX
  5
B4
330
B2
100
AcDbEntity
  8
VRSTVA_1
100
AcDbVertex
100
AcDb2dVertex
 10
101.8871486832956
 20
185.4079765704015
 30
0.0
  0
VERTEX
  5
B5
330
B2
100
AcDbEntity
  8
VRSTVA_1
100
AcDbVertex
100
AcDb2dVertex
 10
100.2746717414244
 20
185.4079765704015
 30
0.0
  0
VERTEX
  5
B6
330
B2
100
AcDbEntity
  8
VRSTVA_1
100
AcDbVertex
100
AcDb2dVertex
 10
100.3272094475744
 20
185.7028767439389
 30
0.0
  0
VERTEX
  5
B7
330
B2
100
AcDbEntity
  8
VRSTVA_1
100
AcDbVertex
100
AcDb2dVertex
 10
100.431940350326
 20
185.9808959495985
 30
0.0
  0
VERTEX
  5
B8
330
B2
100
AcDbEntity
  8
VRSTVA_1
100
AcDbVertex
100
AcDb2dVertex
 10
100.5476955586304
 20
186.1819172711629
 30
0.0
  0
VERTEX
  5
B9
330
B2
100
AcDbEntity
  8
VRSTVA_1
100
AcDbVertex
100
AcDb2dVertex
 10
100.7197780781187
 20
186.422212681259
 30
0.0
  0
VERTEX
  5
BA
330
B2
100
AcDbEntity
  8
VRSTVA_1
100
AcDbVertex
100
AcDb2dVertex
 10
101.2000243887625
 20
187.0052950921376
 30
0.0
  0
VERTEX
  5
BB
330
B2
100
AcDbEntity
  8
VRSTVA_1
100
AcDbVertex
100
AcDb2dVertex
 10
101.3304212528792
 20
187.1927082865352
 30
0.0
  0
VERTEX
  5
BC
330
B2
100
AcDbEntity
  8
VRSTVA_1
100
AcDbVertex
100
AcDb2dVertex
 10
101.4017347294239
 20
187.3694416849285
 30
0.0
  0
VERTEX
  5
BD
330
B2
100
AcDbEntity
  8
VRSTVA_1
100
AcDbVertex
100
AcDb2dVertex
 10
101.4256781430464
 20
187.5444525355792
 30
0.0
  0
VERTEX
  5
BE
330
B2
100
AcDbEntity
  8
VRSTVA_1
100
AcDbVertex
100
AcDb2dVertex
 10
101.3421345775291
 20
187.8393527091166
 30
0.0
  0
VERTEX
  5
BF
330
B2
100
AcDbEntity
  8
VRSTVA_1
100
AcDbVertex
100
AcDb2dVertex
 10
101.1145860207283
 20
187.9433945927711
 30
0.0
  0
VERTEX
  5
C0
330
B2
100
AcDbEntity
  8
VRSTVA_1
100
AcDbVertex
100
AcDb2dVertex
 10
100.8853149161849
 20
187.83504633976
 30
0.0
  0
VERTEX
  5
C1
330
B2
100
AcDbEntity
  8
VRSTVA_1
100
AcDbVertex
100
AcDb2dVertex
 10
100.8183078089968
 20
187.6908690937023
 30
0.0
  0
VERTEX
  5
C2
330
B2
100
AcDbEntity
  8
VRSTVA_1
100
AcDbVertex
100
AcDb2dVertex
 10
100.7871296948553
 20
187.4748616067771
 30
0.0
  0
VERTEX
  5
C3
330
B2
100
AcDbEntity
  8
VRSTVA_1
100
AcDbVertex
100
AcDb2dVertex
 10
100.3285874857686
 20
187.5320501918323
 30
0.0
  0
VERTEX
  5
C4
330
B2
100
AcDbEntity
  8
VRSTVA_1
100
AcDbVertex
100
AcDb2dVertex
 10
100.375440784368
 20
187.8188543909793
 30
0.0
  0
VERTEX
  5
C5
330
B2
100
AcDbEntity
  8
VRSTVA_1
100
AcDbVertex
100
AcDb2dVertex
 10
100.4612236619507
 20
188.0460584382315
 30
0.0
  0
VERTEX
  5
C6
330
B2
100
AcDbEntity
  8
VRSTVA_1
100
AcDbVertex
100
AcDb2dVertex
 10
100.5857638637425
 20
188.213662333589
 30
0.0
  0
VERTEX
  5
C7
330
B2
100
AcDbEntity
  8
VRSTVA_1
100
AcDbVertex
100
AcDb2dVertex
 10
100.74165443445
 20
188.328556268022
 30
0.0
  0
VERTEX
  5
C8
330
B2
100
AcDbEntity
  8
VRSTVA_1
100
AcDbVertex
100
AcDb2dVertex
 10
100.9220051831028
 20
188.397458177727
 30
0.0
  0
VERTEX
  5
C9
330
B2
100
AcDbEntity
  8
VRSTVA_1
100
AcDbVertex
100
AcDb2dVertex
 10
101.1259548358296
 20
188.4203680627039
 30
0.0
  0
VERTEX
  5
CA
330
B2
100
AcDbEntity
  8
VRSTVA_1
100
AcDbVertex
100
AcDb2dVertex
 10
101.3459241825628
 20
188.3940130822418
 30
0.0
  0
VERTEX
  5
CB
330
B2
100
AcDbEntity
  8
VRSTVA_1
100
AcDbVertex
100
AcDb2dVertex
 10
101.5319593387663
 20
188.3137423574355
 30
0.0
  0
VERTEX
  5
CC
330
B2
100
AcDbEntity
  8
VRSTVA_1
100
AcDbVertex
100
AcDb2dVertex
 10
101.6844048139886
 20
188.1807616717048
 30
0.0
  0
VERTEX
  5
CD
330
B2
100
AcDbEntity
  8
VRSTVA_1
100
AcDbVertex
100
AcDb2dVertex
 10
101.8363335248881
 20
187.9123887334038
 30
0.0
  0
VERTEX
  5
CE
330
B2
100
AcDbEntity
  8
VRSTVA_1
100
AcDbVertex
100
AcDb2dVertex
 10
101.8871486832956
 20
187.5852769170794
 30
0.0
  0
VERTEX
  5
CF
330
B2
100
AcDbEntity
  8
VRSTVA_1
100
AcDbVertex
100
AcDb2dVertex
 10
101.872334772709
 20
187.3873561814518
 30
0.0
  0
VERTEX
  5
D0
330
B2
100
AcDbEntity
  8
VRSTVA_1
100
AcDbVertex
100
AcDb2dVertex
 10
101.8282375504978
 20
187.1987372036344
 30
0.0
  0
VERTEX
  5
D1
330
B2
100
AcDbEntity
  8
VRSTVA_1
100
AcDbVertex
100
AcDb2dVertex
 10
101.7538234880164
 20
187.0120130283338
 30
0.0
  0
VERTEX
  5
D2
330
B2
100
AcDbEntity
  8
VRSTVA_1
100
AcDbVertex
100
AcDb2dVertex
 10
101.6447862159083
 20
186.8159870952231
 30
0.0
  0
VERTEX
  5
D3
330
B2
100
AcDbEntity
  8
VRSTVA_1
100
AcDbVertex
100
AcDb2dVertex
 10
101.5279974789583
 20
186.6537230978678
 30
0.0
  0
VERTEX
  5
D4
330
B2
100
AcDbEntity
  8
VRSTVA_1
100
AcDbVertex
100
AcDb2dVertex
 10
101.3435126157232
 20
186.4332369868118
 30
0.0
  0
VERTEX
  5
D5
330
B2
100
AcDbEntity
  8
VRSTVA_1
100
AcDbVertex
100
AcDb2dVertex
 10
101.1657456886843
 20
186.2256699838255
 30
0.0
  0
VERTEX
  5
D6
330
B2
100
AcDbEntity
  8
VRSTVA_1
100
AcDbVertex
100
AcDb2dVertex
 10
101.0670437030319
 20
186.1019910559051
 30
0.0
  0
VERTEX
  5
D7
330
B2
100
AcDbEntity
  8
VRSTVA_1
100
AcDbVertex
100
AcDb2dVertex
 10
100.9738538701558
 20
185.9421386253895
 30
0.0
  0
VERTEX
  5
D8
330
B2
100
AcDbEntity
  8
VRSTVA_1
100
AcDbVertex
100
AcDb2dVertex
 10
101.8871486832956
 20
185.9421386253895
 30
0.0
  0
SEQEND
  5
D9
330
B2
100
AcDbEntity
  8
VRSTVA_1
  0
HATCH
  5
DA
330
1F
100
AcDbEntity
  8
VRSTVA_1
 62
     7
100
AcDbHatch
 10
0.0
 20
0.0
 30
0.0
210
0.0
220
0.0
230
1.0
  2
SOLID
 70
     1
 71
     0
 91
        1
 92
        1
 93
       37
 72
     1
 10
101.8871486832956
 20
185.9421386253895
 11
101.8871486832956
 21
185.4079765704015
 72
     1
 10
101.8871486832956
 20
185.4079765704015
 11
100.2746717414244
 21
185.4079765704015
 72
     1
 10
100.2746717414244
 20
185.4079765704015
 11
100.3272094475744
 21
185.7028767439389
 72
     1
 10
100.3272094475744
 20
185.7028767439389
 11
100.431940350326
 21
185.9808959495985
 72
     1
 10
100.431940350326
 20
185.9808959495985
 11
100.5476955586304
 21
186.1819172711629
 72
     1
 10
100.5476955586304
 20
186.1819172711629
 11
100.7197780781187
 21
186.422212681259
 72
     1
 10
100.7197780781187
 20
186.422212681259
 11
101.2000243887625
 21
187.0052950921376
 72
     1
 10
101.2000243887625
 20
187.0052950921376
 11
101.3304212528792
 21
187.1927082865352
 72
     1
 10
101.3304212528792
 20
187.1927082865352
 11
101.4017347294239
 21
187.3694416849285
 72
     1
 10
101.4017347294239
 20
187.3694416849285
 11
101.4256781430464
 21
187.5444525355792
 72
     1
 10
101.4256781430464
 20
187.5444525355792
 11
101.3421345775291
 21
187.8393527091166
 72
     1
 10
101.3421345775291
 20
187.8393527091166
 11
101.1145860207283
 21
187.9433945927711
 72
     1
 10
101.1145860207283
 20
187.9433945927711
 11
100.8853149161849
 21
187.83504633976
 72
     1
 10
100.8853149161849
 20
187.83504633976
 11
100.8183078089968
 21
187.6908690937023
 72
     1
 10
100.8183078089968
 20
187.6908690937023
 11
100.7871296948553
 21
187.4748616067771
 72
     1
 10
100.7871296948553
 20
187.4748616067771
 11
100.3285874857686
 21
187.5320501918323
 72
     1
 10
100.3285874857686
 20
187.5320501918323
 11
100.375440784368
 21
187.8188543909793
 72
     1
 10
100.375440784368
 20
187.8188543909793
 11
100.4612236619507
 21
188.0460584382315
 72
     1
 10
100.4612236619507
 20
188.0460584382315
 11
100.5857638637425
 21
188.213662333589
 72
     1
 10
100.5857638637425
 20
188.213662333589
 11
100.74165443445
 21
188.328556268022
 72
     1
 10
100.74165443445
 20
188.328556268022
 11
100.9220051831028
 21
188.397458177727
 72
     1
 10
100.9220051831028
 20
188.397458177727
 11
101.1259548358296
 21
188.4203680627039
 72
     1
 10
101.1259548358296
 20
188.4203680627039
 11
101.3459241825628
 21
188.3940130822418
 72
     1
 10
101.3459241825628
 20
188.3940130822418
 11
101.5319593387663
 21
188.3137423574355
 72
     1
 10
101.5319593387663
 20
188.3137423574355
 11
101.6844048139886
 21
188.1807616717048
 72
     1
 10
101.6844048139886
 20
188.1807616717048
 11
101.8363335248881
 21
187.9123887334038
 72
     1
 10
101.8363335248881
 20
187.9123887334038
 11
101.8871486832956
 21
187.5852769170794
 72
     1
 10
101.8871486832956
 20
187.5852769170794
 11
101.872334772709
 21
187.3873561814518
 72
     1
 10
101.872334772709
 20
187.3873561814518
 11
101.8282375504978
 21
187.1987372036344
 72
     1
 10
101.8282375504978
 20
187.1987372036344
 11
101.7538234880164
 21
187.0120130283338
 72
     1
 10
101.7538234880164
 20
187.0120130283338
 11
101.6447862159083
 21
186.8159870952231
 72
     1
 10
101.6447862159083
 20
186.8159870952231
 11
101.5279974789583
 21
186.6537230978678
 72
     1
 10
101.5279974789583
 20
186.6537230978678
 11
101.3435126157232
 21
186.4332369868118
 72
     1
 10
101.3435126157232
 20
186.4332369868118
 11
101.1657456886843
 21
186.2256699838255
 72
     1
 10
101.1657456886843
 20
186.2256699838255
 11
101.0670437030319
 21
186.1019910559051
 72
     1
 10
101.0670437030319
 20
186.1019910559051
 11
100.9738538701558
 21
185.9421386253895
 72
     1
 10
100.9738538701558
 20
185.9421386253895
 11
101.8871486832956
 21
185.9421386253895
 97
        0
 75
     0
 76
     1
 98
        0
  0
POLYLINE
  5
DB
330
1F
100
AcDbEntity
  8
VRSTVA_1
100
AcDb2dPolyline
 66
     1
 10
0.0
 20
0.0
 30
0.0
  0
VERTEX
  5
DC
330
DB
100
AcDbEntity
  8
VRSTVA_1
100
AcDbVertex
100
AcDb2dVertex
 10
102.7141438545298
 20
186.4191120953223
 30
0.0
  0
VERTEX
  5
DD
330
DB
100
AcDbEntity
  8
VRSTVA_1
100
AcDbVertex
100
AcDb2dVertex
 10
102.7398098158949
 20
186.1703762012873
 30
0.0
  0
VERTEX
  5
DE
330
DB
100
AcDbEntity
  8
VRSTVA_1
100
AcDbVertex
100
AcDb2dVertex
 10
102.8171522095388
 20
185.9852023189551
 30
0.0
  0
VERTEX
  5
DF
330
DB
100
AcDbEntity
  8
VRSTVA_1
100
AcDbVertex
100
AcDb2dVertex
 10
103.0527967407299
 20
185.8337903723784
 30
0.0
  0
VERTEX
  5
E0
330
DB
100
AcDbEntity
  8
VRSTVA_1
100
AcDbVertex
100
AcDb2dVertex
 10
103.2658758964926
 20
185.9586750837187
 30
0.0
  0
VERTEX
  5
E1
330
DB
100
AcDbEntity
  8
VRSTVA_1
100
AcDbVertex
100
AcDb2dVertex
 10
103.3296101629697
 20
186.1233506479136
 30
0.0
  0
VERTEX
  5
E2
330
DB
100
AcDbEntity
  8
VRSTVA_1
100
AcDbVertex
100
AcDb2dVertex
 10
103.350797500204
 20
186.3679524273664
 30
0.0
  0
VERTEX
  5
E3
330
DB
100
AcDbEntity
  8
VRSTVA_1
100
AcDbVertex
100
AcDb2dVertex
 10
103.3278876152271
 20
186.6211669455322
 30
0.0
  0
VERTEX
  5
E4
330
DB
100
AcDbEntity
  8
VRSTVA_1
100
AcDbVertex
100
AcDb2dVertex
 10
103.2591579602963
 20
186.7954887770859
 30
0.0
  0
VERTEX
  5
E5
330
DB
100
AcDbEntity
  8
VRSTVA_1
100
AcDbVertex
100
AcDb2dVertex
 10
103.0298868557529
 20
186.9327758321731
 30
0.0
  0
VERTEX
  5
E6
330
DB
100
AcDbEntity
  8
VRSTVA_1
100
AcDbVertex
100
AcDb2dVertex
 10
102.8057833944374
 20
186.8018622037336
 30
0.0
  0
VERTEX
  5
E7
330
DB
100
AcDbEntity
  8
VRSTVA_1
100
AcDbVertex
100
AcDb2dVertex
 10
102.7370537395067
 20
186.6416652636695
 30
0.0
  0
VERTEX
  5
E8
330
DB
100
AcDbEntity
  8
VRSTVA_1
100
AcDbVertex
100
AcDb2dVertex
 10
102.7141438545298
 20
186.4191120953223
 30
0.0
  0
SEQEND
  5
E9
330
DB
100
AcDbEntity
  8
VRSTVA_1
  0
POLYLINE
  5
EA
330
1F
100
AcDbEntity
  8
VRSTVA_1
100
AcDb2dPolyline
 66
     1
 10
0.0
 20
0.0
 30
0.0
  0
VERTEX
  5
EB
330
EA
100
AcDbEntity
  8
VRSTVA_1
100
AcDbVertex
100
AcDb2dVertex
 10
103.7569742579149
 20
187.6734713615018
 30
0.0
  0
VERTEX
  5
EC
330
EA
100
AcDbEntity
  8
VRSTVA_1
100
AcDbVertex
100
AcDb2dVertex
 10
103.3116956664464
 20
187.6121486618643
 30
0.0
  0
VERTEX
  5
ED
330
EA
100
AcDbEntity
  8
VRSTVA_1
100
AcDbVertex
100
AcDb2dVertex
 10
103.2262572984122
 20
187.865879944353
 30
0.0
  0
VERTEX
  5
EE
330
EA
100
AcDbEntity
  8
VRSTVA_1
100
AcDbVertex
100
AcDb2dVertex
 10
103.0478013522763
 20
187.9477009621277
 30
0.0
  0
VERTEX
  5
EF
330
EA
100
AcDbEntity
  8
VRSTVA_1
100
AcDbVertex
100
AcDb2dVertex
 10
102.9134426283515
 20
187.9067043258532
 30
0.0
  0
VERTEX
  5
F0
330
EA
100
AcDbEntity
  8
VRSTVA_1
100
AcDbVertex
100
AcDb2dVertex
 10
102.8007880059838
 20
187.783886671804
 30
0.0
  0
VERTEX
  5
F1
330
EA
100
AcDbEntity
  8
VRSTVA_1
100
AcDbVertex
100
AcDb2dVertex
 10
102.7422213827346
 20
187.6354030563898
 30
0.0
  0
VERTEX
  5
F2
330
EA
100
AcDbEntity
  8
VRSTVA_1
100
AcDbVertex
100
AcDb2dVertex
 10
102.7003634725888
 20
187.4081990091375
 30
0.0
  0
VERTEX
  5
F3
330
EA
100
AcDbEntity
  8
VRSTVA_1
100
AcDbVertex
100
AcDb2dVertex
 10
102.6745252564494
 20
187.1024467848216
 30
0.0
  0
VERTEX
  5
F4
330
EA
100
AcDbEntity
  8
VRSTVA_1
100
AcDbVertex
100
AcDb2dVertex
 10
102.8674506036234
 20
187.2929605651559
 30
0.0
  0
VERTEX
  5
F5
330
EA
100
AcDbEntity
  8
VRSTVA_1
100
AcDbVertex
100
AcDb2dVertex
 10
103.1020616061689
 20
187.3563503220845
 30
0.0
  0
VERTEX
  5
F6
330
EA
100
AcDbEntity
  8
VRSTVA_1
100
AcDbVertex
100
AcDb2dVertex
 10
103.2848239216614
 20
187.3256889722658
 30
0.0
  0
VERTEX
  5
F7
330
EA
100
AcDbEntity
  8
VRSTVA_1
100
AcDbVertex
100
AcDb2dVertex
 10
103.4489827215336
 20
187.2343939419067
 30
0.0
  0
VERTEX
  5
F8
330
EA
100
AcDbEntity
  8
VRSTVA_1
100
AcDbVertex
100
AcDb2dVertex
 10
103.5945380057854
 20
187.0819484666844
 30
0.0
  0
VERTEX
  5
F9
330
EA
100
AcDbEntity
  8
VRSTVA_1
100
AcDbVertex
100
AcDb2dVertex
 10
103.7092596854442
 20
186.8816161642171
 30
0.0
  0
VERTEX
  5
FA
330
EA
100
AcDbEntity
  8
VRSTVA_1
100
AcDbVertex
100
AcDb2dVertex
 10
103.777989340375
 20
186.6456271234775
 30
0.0
  0
VERTEX
  5
FB
330
EA
100
AcDbEntity
  8
VRSTVA_1
100
AcDbVertex
100
AcDb2dVertex
 10
103.8010714801261
 20
186.3739813444655
 30
0.0
  0
VERTEX
  5
FC
330
EA
100
AcDbEntity
  8
VRSTVA_1
100
AcDbVertex
100
AcDb2dVertex
 10
103.7769558117294
 20
186.0871771453185
 30
0.0
  0
VERTEX
  5
FD
330
EA
100
AcDbEntity
  8
VRSTVA_1
100
AcDbVertex
100
AcDb2dVertex
 10
103.7049533160877
 20
185.8408528181231
 30
0.0
  0
VERTEX
  5
FE
330
EA
100
AcDbEntity
  8
VRSTVA_1
100
AcDbVertex
100
AcDb2dVertex
 10
103.5847194836524
 20
185.6351806176537
 30
0.0
  0
VERTEX
  5
FF
330
EA
100
AcDbEntity
  8
VRSTVA_1
100
AcDbVertex
100
AcDb2dVertex
 10
103.4271063652022
 20
185.4806680851403
 30
0.0
  0
VERTEX
  5
100
330
EA
100
AcDbEntity
  8
VRSTVA_1
100
AcDbVertex
100
AcDb2dVertex
 10
103.2421047376443
 20
185.3878227618128
 30
0.0
  0
VERTEX
  5
101
330
EA
100
AcDbEntity
  8
VRSTVA_1
100
AcDbVertex
100
AcDb2dVertex
 10
103.0298868557529
 20
185.3568169024455
 30
0.0
  0
VERTEX
  5
102
330
EA
100
AcDbEntity
  8
VRSTVA_1
100
AcDbVertex
100
AcDb2dVertex
 10
102.8019937894037
 20
185.3960909909774
 30
0.0
  0
VERTEX
  5
103
330
EA
100
AcDbEntity
  8
VRSTVA_1
100
AcDbVertex
100
AcDb2dVertex
 10
102.6028672703562
 20
185.5135687470244
 30
0.0
  0
VERTEX
  5
104
330
EA
100
AcDbEntity
  8
VRSTVA_1
100
AcDbVertex
100
AcDb2dVertex
 10
102.4321627890621
 20
185.7089056610381
 30
0.0
  0
VERTEX
  5
105
330
EA
100
AcDbEntity
  8
VRSTVA_1
100
AcDbVertex
100
AcDb2dVertex
 10
102.3298434531502
 20
185.9138888424104
 30
0.0
  0
VERTEX
  5
106
330
EA
100
AcDbEntity
  8
VRSTVA_1
100
AcDbVertex
100
AcDb2dVertex
 10
102.2568074288629
 20
186.1757160992894
 30
0.0
  0
VERTEX
  5
107
330
EA
100
AcDbEntity
  8
VRSTVA_1
100
AcDbVertex
100
AcDb2dVertex
 10
102.2127102066517
 20
186.4931816482552
 30
0.0
  0
VERTEX
  5
108
330
EA
100
AcDbEntity
  8
VRSTVA_1
100
AcDbVertex
100
AcDb2dVertex
 10
102.1982408056136
 20
186.8671467631791
 30
0.0
  0
VERTEX
  5
109
330
EA
100
AcDbEntity
  8
VRSTVA_1
100
AcDbVertex
100
AcDb2dVertex
 10
102.213571480523
 20
187.2505858906874
 30
0.0
  0
VERTEX
  5
10A
330
EA
100
AcDbEntity
  8
VRSTVA_1
100
AcDbVertex
100
AcDb2dVertex
 10
102.2593912504768
 20
187.5768364331405
 30
0.0
  0
VERTEX
  5
10B
330
EA
100
AcDbEntity
  8
VRSTVA_1
100
AcDbVertex
100
AcDb2dVertex
 10
102.3355278607009
 20
187.8453816262158
 30
0.0
  0
VERTEX
  5
10C
330
EA
100
AcDbEntity
  8
VRSTVA_1
100
AcDbVertex
100
AcDb2dVertex
 10
102.4421535659693
 20
188.0560492151388
 30
0.0
  0
VERTEX
  5
10D
330
EA
100
AcDbEntity
  8
VRSTVA_1
100
AcDbVertex
100
AcDb2dVertex
 10
102.6209540216538
 20
188.2584485748972
 30
0.0
  0
VERTEX
  5
10E
330
EA
100
AcDbEntity
  8
VRSTVA_1
100
AcDbVertex
100
AcDb2dVertex
 10
102.8323106296739
 20
188.3798881907523
 30
0.0
  0
VERTEX
  5
10F
330
EA
100
AcDbEntity
  8
VRSTVA_1
100
AcDbVertex
100
AcDb2dVertex
 10
103.0757066257068
 20
188.4203680627039
 30
0.0
  0
VERTEX
  5
110
330
EA
100
AcDbEntity
  8
VRSTVA_1
100
AcDbVertex
100
AcDb2dVertex
 10
103.3254760483874
 20
188.3723089806847
 30
0.0
  0
VERTEX
  5
111
330
EA
100
AcDbEntity
  8
VRSTVA_1
100
AcDbVertex
100
AcDb2dVertex
 10
103.5275308985973
 20
188.228131734627
 30
0.0
  0
VERTEX
  5
112
330
EA
100
AcDbEntity
  8
VRSTVA_1
100
AcDbVertex
100
AcDb2dVertex
 10
103.674980985366
 20
187.9942097511785
 30
0.0
  0
VERTEX
  5
113
330
EA
100
AcDbEntity
  8
VRSTVA_1
100
AcDbVertex
100
AcDb2dVertex
 10
103.7569742579149
 20
187.6734713615018
 30
0.0
  0
SEQEND
  5
114
330
EA
100
AcDbEntity
  8
VRSTVA_1
  0
HATCH
  5
115
330
1F
100
AcDbEntity
  8
VRSTVA_1
 62
     7
100
AcDbHatch
 10
0.0
 20
0.0
 30
0.0
210
0.0
220
0.0
230
1.0
  2
SOLID
 70
     1
 71
     0
 91
        2
 92
        1
 93
       12
 72
     1
 10
102.7141438545298
 20
186.4191120953223
 11
102.7398098158949
 21
186.1703762012873
 72
     1
 10
102.7398098158949
 20
186.1703762012873
 11
102.8171522095388
 21
185.9852023189551
 72
     1
 10
102.8171522095388
 20
185.9852023189551
 11
103.0527967407299
 21
185.8337903723784
 72
     1
 10
103.0527967407299
 20
185.8337903723784
 11
103.2658758964926
 21
185.9586750837187
 72
     1
 10
103.2658758964926
 20
185.9586750837187
 11
103.3296101629697
 21
186.1233506479136
 72
     1
 10
103.3296101629697
 20
186.1233506479136
 11
103.350797500204
 21
186.3679524273664
 72
     1
 10
103.350797500204
 20
186.3679524273664
 11
103.3278876152271
 21
186.6211669455322
 72
     1
 10
103.3278876152271
 20
186.6211669455322
 11
103.2591579602963
 21
186.7954887770859
 72
     1
 10
103.2591579602963
 20
186.7954887770859
 11
103.0298868557529
 21
186.9327758321731
 72
     1
 10
103.0298868557529
 20
186.9327758321731
 11
102.8057833944374
 21
186.8018622037336
 72
     1
 10
102.8057833944374
 20
186.8018622037336
 11
102.7370537395067
 21
186.6416652636695
 72
     1
 10
102.7370537395067
 20
186.6416652636695
 11
102.7141438545298
 21
186.4191120953223
 97
        0
 92
        1
 93
       40
 72
     1
 10
103.7569742579149
 20
187.6734713615018
 11
103.3116956664464
 21
187.6121486618643
 72
     1
 10
103.3116956664464
 20
187.6121486618643
 11
103.2262572984122
 21
187.865879944353
 72
     1
 10
103.2262572984122
 20
187.865879944353
 11
103.0478013522763
 21
187.9477009621277
 72
     1
 10
103.0478013522763
 20
187.9477009621277
 11
102.9134426283515
 21
187.9067043258532
 72
     1
 10
102.9134426283515
 20
187.9067043258532
 11
102.8007880059838
 21
187.783886671804
 72
     1
 10
102.8007880059838
 20
187.783886671804
 11
102.7422213827346
 21
187.6354030563898
 72
     1
 10
102.7422213827346
 20
187.6354030563898
 11
102.7003634725888
 21
187.4081990091375
 72
     1
 10
102.7003634725888
 20
187.4081990091375
 11
102.6745252564494
 21
187.1024467848216
 72
     1
 10
102.6745252564494
 20
187.1024467848216
 11
102.8674506036234
 21
187.2929605651559
 72
     1
 10
102.8674506036234
 20
187.2929605651559
 11
103.1020616061689
 21
187.3563503220845
 72
     1
 10
103.1020616061689
 20
187.3563503220845
 11
103.2848239216614
 21
187.3256889722658
 72
     1
 10
103.2848239216614
 20
187.3256889722658
 11
103.4489827215336
 21
187.2343939419067
 72
     1
 10
103.4489827215336
 20
187.2343939419067
 11
103.5945380057854
 21
187.0819484666844
 72
     1
 10
103.5945380057854
 20
187.0819484666844
 11
103.7092596854442
 21
186.8816161642171
 72
     1
 10
103.7092596854442
 20
186.8816161642171
 11
103.777989340375
 21
186.6456271234775
 72
     1
 10
103.777989340375
 20
186.6456271234775
 11
103.8010714801261
 21
186.3739813444655
 72
     1
 10
103.8010714801261
 20
186.3739813444655
 11
103.7769558117294
 21
186.0871771453185
 72
     1
 10
103.7769558117294
 20
186.0871771453185
 11
103.7049533160877
 21
185.8408528181231
 72
     1
 10
103.7049533160877
 20
185.8408528181231
 11
103.5847194836524
 21
185.6351806176537
 72
     1
 10
103.5847194836524
 20
185.6351806176537
 11
103.4271063652022
 21
185.4806680851403
 72
     1
 10
103.4271063652022
 20
185.4806680851403
 11
103.2421047376443
 21
185.3878227618128
 72
     1
 10
103.2421047376443
 20
185.3878227618128
 11
103.0298868557529
 21
185.3568169024455
 72
     1
 10
103.0298868557529
 20
185.3568169024455
 11
102.8019937894037
 21
185.3960909909774
 72
     1
 10
102.8019937894037
 20
185.3960909909774
 11
102.6028672703562
 21
185.5135687470244
 72
     1
 10
102.6028672703562
 20
185.5135687470244
 11
102.4321627890621
 21
185.7089056610381
 72
     1
 10
102.4321627890621
 20
185.7089056610381
 11
102.3298434531502
 21
185.9138888424104
 72
     1
 10
102.3298434531502
 20
185.9138888424104
 11
102.2568074288629
 21
186.1757160992894
 72
     1
 10
102.2568074288629
 20
186.1757160992894
 11
102.2127102066517
 21
186.4931816482552
 72
     1
 10
102.2127102066517
 20
186.4931816482552
 11
102.1982408056136
 21
186.8671467631791
 72
     1
 10
102.1982408056136
 20
186.8671467631791
 11
102.213571480523
 21
187.2505858906874
 72
     1
 10
102.213571480523
 20
187.2505858906874
 11
102.2593912504768
 21
187.5768364331405
 72
     1
 10
102.2593912504768
 20
187.5768364331405
 11
102.3355278607009
 21
187.8453816262158
 72
     1
 10
102.3355278607009
 20
187.8453816262158
 11
102.4421535659693
 21
188.0560492151388
 72
     1
 10
102.4421535659693
 20
188.0560492151388
 11
102.6209540216538
 21
188.2584485748972
 72
     1
 10
102.6209540216538
 20
188.2584485748972
 11
102.8323106296739
 21
188.3798881907523
 72
     1
 10
102.8323106296739
 20
188.3798881907523
 11
103.0757066257068
 21
188.4203680627039
 72
     1
 10
103.0757066257068
 20
188.4203680627039
 11
103.3254760483874
 21
188.3723089806847
 72
     1
 10
103.3254760483874
 20
188.3723089806847
 11
103.5275308985973
 21
188.228131734627
 72
     1
 10
103.5275308985973
 20
188.228131734627
 11
103.674980985366
 21
187.9942097511785
 72
     1
 10
103.674980985366
 20
187.9942097511785
 11
103.7569742579149
 21
187.6734713615018
 97
        0
 75
     0
 76
     1
 98
        0
  0
SPLINE
  5
116
330
1F
100
AcDbEntity
  8
VRSTVA_1
 62
     7
100
AcDbSpline
210
0.0
220
0.0
230
1.0
 70
     8
 71
     3
 72
     8
 73
     4
 74
     0
 42
0.0000000001
 43
0.0000000001
 40
0.0
 40
0.0
 40
0.0
 40
0.0
 40
1.0
 40
1.0
 40
1.0
 40
1.0
 10
90.6346055545983
 20
154.8074326869926
 30
0.0
 10
90.8109944434431
 20
155.0592691669644
 30
0.0
 10
90.90590682406172
 20
155.3598537480524
 30
0.0
 10
90.90590682406172
 20
155.6675007748852
 30
0.0
  0
SPLINE
  5
117
330
1F
100
AcDbEntity
  8
VRSTVA_1
 62
     7
100
AcDbSpline
210
0.0
220
0.0
230
1.0
 70
     8
 71
     3
 72
     8
 73
     4
 74
     0
 42
0.0000000001
 43
0.0000000001
 40
0.0
 40
0.0
 40
0.0
 40
0.0
 40
1.0
 40
1.0
 40
1.0
 40
1.0
 10
92.4059013983395
 20
174.838423621655
 30
0.0
 10
91.57752818891117
 20
174.838423621655
 30
0.0
 10
90.90590682406172
 20
174.1668022568055
 30
0.0
 10
90.90590682406172
 20
173.3384290473772
 30
0.0
  0
SPLINE
  5
118
330
1F
100
AcDbEntity
  8
VRSTVA_1
 62
     7
100
AcDbSpline
210
0.0
220
0.0
230
1.0
 70
     8
 71
     3
 72
     8
 73
     4
 74
     0
 42
0.0000000001
 43
0.0000000001
 40
0.0
 40
0.0
 40
0.0
 40
0.0
 40
1.0
 40
1.0
 40
1.0
 40
1.0
 10
114.9056477577319
 20
173.3384290473772
 30
0.0
 10
114.9056477577319
 20
174.1668022568055
 30
0.0
 10
114.2345431572053
 20
174.838423621655
 30
0.0
 10
113.4056531834541
 20
174.838423621655
 30
0.0
  0
SPLINE
  5
119
330
1F
100
AcDbEntity
  8
VRSTVA_1
 62
     7
100
AcDbSpline
210
0.0
220
0.0
230
1.0
 70
     8
 71
     3
 72
     8
 73
     4
 74
     0
 42
0.0000000001
 43
0.0000000001
 40
0.0
 40
0.0
 40
0.0
 40
0.0
 40
1.0
 40
1.0
 40
1.0
 40
1.0
 10
114.6345187430428
 20
154.4510375590435
 30
0.0
 10
114.8112521414361
 20
154.7028740390153
 30
0.0
 10
114.9056477577319
 20
155.0034586201033
 30
0.0
 10
114.9056477577319
 20
155.3111056469361
 30
0.0
  0
SPLINE
  5
11A
330
1F
100
AcDbEntity
  8
VRSTVA_1
 62
     7
100
AcDbSpline
210
0.0
220
0.0
230
1.0
 70
     8
 71
     3
 72
     8
 73
     4
 74
     0
 42
0.0000000001
 43
0.0000000001
 40
0.0
 40
0.0
 40
0.0
 40
0.0
 40
1.0
 40
1.0
 40
1.0
 40
1.0
 10
113.1772433527821
 20
152.3693386120813
 30
0.0
 10
113.0008544639373
 20
152.1175021321095
 30
0.0
 10
112.9057698285444
 20
151.8169175510215
 30
0.0
 10
112.9057698285444
 20
151.5092705241887
 30
0.0
  0
SPLINE
  5
11B
330
1F
100
AcDbEntity
  8
VRSTVA_1
 62
     7
100
AcDbSpline
210
0.0
220
0.0
230
1.0
 70
     8
 71
     3
 72
     8
 73
     4
 74
     0
 42
0.0000000001
 43
0.0000000001
 40
0.0
 40
0.0
 40
0.0
 40
0.0
 40
1.0
 40
1.0
 40
1.0
 40
1.0
 10
111.4057752542666
 20
132.3381754226446
 30
0.0
 10
112.2339762089207
 20
132.3381754226446
 30
0.0
 10
112.9057698285444
 20
133.0099690422684
 30
0.0
 10
112.9057698285444
 20
133.8381699969224
 30
0.0
  0
SPLINE
  5
11C
330
1F
100
AcDbEntity
  8
VRSTVA_1
 62
     7
100
AcDbSpline
210
0.0
220
0.0
230
1.0
 70
     8
 71
     3
 72
     8
 73
     4
 74
     0
 42
0.0000000001
 43
0.0000000001
 40
0.0
 40
0.0
 40
0.0
 40
0.0
 40
1.0
 40
1.0
 40
1.0
 40
1.0
 10
88.9060288948742
 20
133.8381699969224
 30
0.0
 10
88.9060288948742
 20
133.0099690422684
 30
0.0
 10
89.57730575017513
 20
132.3381754226446
 30
0.0
 10
90.40602346915198
 20
132.3381754226446
 30
0.0
  0
SPLINE
  5
11D
330
1F
100
AcDbEntity
  8
VRSTVA_1
 62
     7
100
AcDbSpline
210
0.0
220
0.0
230
1.0
 70
     8
 71
     3
 72
     8
 73
     4
 74
     0
 42
0.0000000001
 43
0.0000000001
 40
0.0
 40
0.0
 40
0.0
 40
0.0
 40
1.0
 40
1.0
 40
1.0
 40
1.0
 10
89.17733016433762
 20
152.7255614852561
 30
0.0
 10
89.0005967659443
 20
152.4737250052844
 30
0.0
 10
88.9060288948742
 20
152.1731404241963
 30
0.0
 10
88.9060288948742
 20
151.8654933973635
 30
0.0
  0
SPLINE
  5
11E
330
1F
100
AcDbEntity
  8
VRSTVA_1
 62
     7
100
AcDbSpline
210
0.0
220
0.0
230
1.0
 70
    11
 71
     3
 72
    17
 73
    13
 74
     0
 42
0.0000000001
 43
0.0000000001
 40
0.0
 40
0.0
 40
0.0
 40
0.0
 40
1.0
 40
1.0
 40
1.0
 40
2.0
 40
2.0
 40
2.0
 40
3.0
 40
3.0
 40
3.0
 40
4.0
 40
4.0
 40
4.0
 40
4.0
 10
108.9056694606208
 20
164.6381849089273
 30
0.0
 10
109.8448024898999
 20
164.6381849089273
 30
0.0
 10
110.6058240825916
 20
165.3995510111675
 30
0.0
 10
110.6058240825916
 20
166.3381672761238
 30
0.0
 10
110.6058240825916
 20
167.2773003054029
 30
0.0
 10
109.8448024898999
 20
168.0383218980946
 30
0.0
 10
108.9056694606208
 20
168.0383218980946
 30
0.0
 10
107.9668809408902
 20
168.0383218980946
 30
0.0
 10
107.2058593481985
 20
167.2773003054029
 30
0.0
 10
107.2058593481985
 20
166.3381672761238
 30
0.0
 10
107.2058593481985
 20
165.3995510111675
 30
0.0
 10
107.9668809408902
 20
164.6381849089273
 30
0.0
 10
108.9056694606208
 20
164.6381849089273
 30
0.0
  0
POLYLINE
  5
11F
330
1F
100
AcDbEntity
  8
VRSTVA_1
 62
     7
100
AcDb2dPolyline
 66
     1
 10
0.0
 20
0.0
 30
0.0
  0
VERTEX
  5
120
330
11F
100
AcDbEntity
  8
VRSTVA_1
 62
     7
100
AcDbVertex
100
AcDb2dVertex
 10
114.9056477577319
 20
173.3384290473772
 30
0.0
  0
VERTEX
  5
121
330
11F
100
AcDbEntity
  8
VRSTVA_1
 62
     7
100
AcDbVertex
100
AcDb2dVertex
 10
114.9056477577319
 20
155.3111056469361
 30
0.0
  0
SEQEND
  5
122
330
11F
100
AcDbEntity
  8
VRSTVA_1
  0
POLYLINE
  5
123
330
1F
100
AcDbEntity
  8
VRSTVA_1
 62
     7
100
AcDb2dPolyline
 66
     1
 10
0.0
 20
0.0
 30
0.0
  0
VERTEX
  5
124
330
123
100
AcDbEntity
  8
VRSTVA_1
 62
     7
100
AcDbVertex
100
AcDb2dVertex
 10
88.9060288948742
 20
133.8381699969224
 30
0.0
  0
VERTEX
  5
125
330
123
100
AcDbEntity
  8
VRSTVA_1
 62
     7
100
AcDbVertex
100
AcDb2dVertex
 10
88.9060288948742
 20
151.8654933973635
 30
0.0
  0
SEQEND
  5
126
330
123
100
AcDbEntity
  8
VRSTVA_1
  0
POLYLINE
  5
127
330
1F
100
AcDbEntity
  8
VRSTVA_1
 62
     7
100
AcDb2dPolyline
 66
     1
 10
0.0
 20
0.0
 30
0.0
  0
VERTEX
  5
128
330
127
100
AcDbEntity
  8
VRSTVA_1
 62
     7
100
AcDbVertex
100
AcDb2dVertex
 10
111.4057752542666
 20
132.3381754226446
 30
0.0
  0
VERTEX
  5
129
330
127
100
AcDbEntity
  8
VRSTVA_1
 62
     7
100
AcDbVertex
100
AcDb2dVertex
 10
90.40602346915198
 20
132.3381754226446
 30
0.0
  0
SEQEND
  5
12A
330
127
100
AcDbEntity
  8
VRSTVA_1
  0
POLYLINE
  5
12B
330
1F
100
AcDbEntity
  8
VRSTVA_1
 62
     7
100
AcDb2dPolyline
 66
     1
 10
0.0
 20
0.0
 30
0.0
  0
VERTEX
  5
12C
330
12B
100
AcDbEntity
  8
VRSTVA_1
 62
     7
100
AcDbVertex
100
AcDb2dVertex
 10
92.4059013983395
 20
174.838423621655
 30
0.0
  0
VERTEX
  5
12D
330
12B
100
AcDbEntity
  8
VRSTVA_1
 62
     7
100
AcDbVertex
100
AcDb2dVertex
 10
113.4056531834541
 20
174.838423621655
 30
0.0
  0
SEQEND
  5
12E
330
12B
100
AcDbEntity
  8
VRSTVA_1
  0
POLYLINE
  5
12F
330
1F
100
AcDbEntity
  8
VRSTVA_1
 62
     7
100
AcDb2dPolyline
 66
     1
 10
0.0
 20
0.0
 30
0.0
  0
VERTEX
  5
130
330
12F
100
AcDbEntity
  8
VRSTVA_1
 62
     7
100
AcDbVertex
100
AcDb2dVertex
 10
90.6346055545983
 20
154.8074326869926
 30
0.0
  0
VERTEX
  5
131
330
12F
100
AcDbEntity
  8
VRSTVA_1
 62
     7
100
AcDbVertex
100
AcDb2dVertex
 10
89.17733016433762
 20
152.7255614852561
 30
0.0
  0
SEQEND
  5
132
330
12F
100
AcDbEntity
  8
VRSTVA_1
  0
POLYLINE
  5
133
330
1F
100
AcDbEntity
  8
VRSTVA_1
 62
     7
100
AcDb2dPolyline
 66
     1
 10
0.0
 20
0.0
 30
0.0
  0
VERTEX
  5
134
330
133
100
AcDbEntity
  8
VRSTVA_1
 62
     7
100
AcDbVertex
100
AcDb2dVertex
 10
112.9057698285444
 20
151.5092705241887
 30
0.0
  0
VERTEX
  5
135
330
133
100
AcDbEntity
  8
VRSTVA_1
 62
     7
100
AcDbVertex
100
AcDb2dVertex
 10
112.9057698285444
 20
133.8381699969224
 30
0.0
  0
SEQEND
  5
136
330
133
100
AcDbEntity
  8
VRSTVA_1
  0
POLYLINE
  5
137
330
1F
100
AcDbEntity
  8
VRSTVA_1
 62
     7
100
AcDb2dPolyline
 66
     1
 10
0.0
 20
0.0
 30
0.0
  0
VERTEX
  5
138
330
137
100
AcDbEntity
  8
VRSTVA_1
 62
     7
100
AcDbVertex
100
AcDb2dVertex
 10
113.1772433527821
 20
152.3693386120813
 30
0.0
  0
VERTEX
  5
139
330
137
100
AcDbEntity
  8
VRSTVA_1
 62
     7
100
AcDbVertex
100
AcDb2dVertex
 10
114.6345187430428
 20
154.4510375590435
 30
0.0
  0
SEQEND
  5
13A
330
137
100
AcDbEntity
  8
VRSTVA_1
  0
POLYLINE
  5
13B
330
1F
100
AcDbEntity
  8
VRSTVA_1
 62
     7
100
AcDb2dPolyline
 66
     1
 10
0.0
 20
0.0
 30
0.0
  0
VERTEX
  5
13C
330
13B
100
AcDbEntity
  8
VRSTVA_1
 62
     7
100
AcDbVertex
100
AcDb2dVertex
 10
90.90590682406172
 20
155.6675007748852
 30
0.0
  0
VERTEX
  5
13D
330
13B
100
AcDbEntity
  8
VRSTVA_1
 62
     7
100
AcDbVertex
100
AcDb2dVertex
 10
90.90590682406172
 20
173.3384290473772
 30
0.0
  0
SEQEND
  5
13E
330
13B
100
AcDbEntity
  8
VRSTVA_1
  0
POLYLINE
  5
13F
330
1F
100
AcDbEntity
  8
VRSTVA_1
 62
     7
100
AcDb2dPolyline
 66
     1
 10
0.0
 20
0.0
 30
0.0
  0
VERTEX
  5
140
330
13F
100
AcDbEntity
  8
VRSTVA_1
 62
     7
100
AcDbVertex
100
AcDb2dVertex
 10
92.4059013983395
 20
183.9079819961237
 30
0.0
  0
VERTEX
  5
141
330
13F
100
AcDbEntity
  8
VRSTVA_1
 62
     7
100
AcDbVertex
100
AcDb2dVertex
 10
88.9060288948742
 20
183.9079819961237
 30
0.0
  0
SEQEND
  5
142
330
13F
100
AcDbEntity
  8
VRSTVA_1
  0
POLYLINE
  5
143
330
1F
100
AcDbEntity
  8
VRSTVA_1
 62
     7
100
AcDb2dPolyline
 66
     1
 10
0.0
 20
0.0
 30
0.0
  0
VERTEX
  5
144
330
143
100
AcDbEntity
  8
VRSTVA_1
 62
     7
100
AcDbVertex
100
AcDb2dVertex
 10
92.4059013983395
 20
183.9587971545311
 30
0.0
  0
VERTEX
  5
145
330
143
100
AcDbEntity
  8
VRSTVA_1
 62
     7
100
AcDbVertex
100
AcDb2dVertex
 10
89.09550914656293
 20
183.9587971545311
 30
0.0
  0
SEQEND
  5
146
330
143
100
AcDbEntity
  8
VRSTVA_1
  0
POLYLINE
  5
147
330
1F
100
AcDbEntity
  8
VRSTVA_1
 62
     7
100
AcDb2dPolyline
 66
     1
 10
0.0
 20
0.0
 30
0.0
  0
VERTEX
  5
148
330
147
100
AcDbEntity
  8
VRSTVA_1
 62
     7
100
AcDbVertex
100
AcDb2dVertex
 10
92.4059013983395
 20
184.0096123129386
 30
0.0
  0
VERTEX
  5
149
330
147
100
AcDbEntity
  8
VRSTVA_1
 62
     7
100
AcDbVertex
100
AcDb2dVertex
 10
89.28481714347741
 20
184.0096123129386
 30
0.0
  0
SEQEND
  5
14A
330
147
100
AcDbEntity
  8
VRSTVA_1
  0
POLYLINE
  5
14B
330
1F
100
AcDbEntity
  8
VRSTVA_1
 62
     7
100
AcDb2dPolyline
 66
     1
 10
0.0
 20
0.0
 30
0.0
  0
VERTEX
  5
14C
330
14B
100
AcDbEntity
  8
VRSTVA_1
 62
     7
100
AcDbVertex
100
AcDb2dVertex
 10
92.4059013983395
 20
184.060427471346
 30
0.0
  0
VERTEX
  5
14D
330
14B
100
AcDbEntity
  8
VRSTVA_1
 62
     7
100
AcDbVertex
100
AcDb2dVertex
 10
89.47464190471467
 20
184.060427471346
 30
0.0
  0
SEQEND
  5
14E
330
14B
100
AcDbEntity
  8
VRSTVA_1
  0
POLYLINE
  5
14F
330
1F
100
AcDbEntity
  8
VRSTVA_1
 62
     7
100
AcDb2dPolyline
 66
     1
 10
0.0
 20
0.0
 30
0.0
  0
VERTEX
  5
150
330
14F
100
AcDbEntity
  8
VRSTVA_1
 62
     7
100
AcDbVertex
100
AcDb2dVertex
 10
92.4059013983395
 20
184.1112426297534
 30
0.0
  0
VERTEX
  5
151
330
14F
100
AcDbEntity
  8
VRSTVA_1
 62
     7
100
AcDbVertex
100
AcDb2dVertex
 10
89.66412215640342
 20
184.1112426297534
 30
0.0
  0
SEQEND
  5
152
330
14F
100
AcDbEntity
  8
VRSTVA_1
  0
POLYLINE
  5
153
330
1F
100
AcDbEntity
  8
VRSTVA_1
 62
     7
100
AcDb2dPolyline
 66
     1
 10
0.0
 20
0.0
 30
0.0
  0
VERTEX
  5
154
330
153
100
AcDbEntity
  8
VRSTVA_1
 62
     7
100
AcDbVertex
100
AcDb2dVertex
 10
92.4059013983395
 20
184.1620577881609
 30
0.0
  0
VERTEX
  5
155
330
153
100
AcDbEntity
  8
VRSTVA_1
 62
     7
100
AcDbVertex
100
AcDb2dVertex
 10
89.85394691764068
 20
184.1620577881609
 30
0.0
  0
SEQEND
  5
156
330
153
100
AcDbEntity
  8
VRSTVA_1
  0
POLYLINE
  5
157
330
1F
100
AcDbEntity
  8
VRSTVA_1
 62
     7
100
AcDb2dPolyline
 66
     1
 10
0.0
 20
0.0
 30
0.0
  0
VERTEX
  5
158
330
157
100
AcDbEntity
  8
VRSTVA_1
 62
     7
100
AcDbVertex
100
AcDb2dVertex
 10
92.4059013983395
 20
184.2127006917941
 30
0.0
  0
VERTEX
  5
159
330
157
100
AcDbEntity
  8
VRSTVA_1
 62
     7
100
AcDbVertex
100
AcDb2dVertex
 10
90.04342716932942
 20
184.2127006917941
 30
0.0
  0
SEQEND
  5
15A
330
157
100
AcDbEntity
  8
VRSTVA_1
  0
POLYLINE
  5
15B
330
1F
100
AcDbEntity
  8
VRSTVA_1
 62
     7
100
AcDb2dPolyline
 66
     1
 10
0.0
 20
0.0
 30
0.0
  0
VERTEX
  5
15C
330
15B
100
AcDbEntity
  8
VRSTVA_1
 62
     7
100
AcDbVertex
100
AcDb2dVertex
 10
92.4059013983395
 20
184.2636881049758
 30
0.0
  0
VERTEX
  5
15D
330
15B
100
AcDbEntity
  8
VRSTVA_1
 62
     7
100
AcDbVertex
100
AcDb2dVertex
 10
90.2327351662439
 20
184.2636881049758
 30
0.0
  0
SEQEND
  5
15E
330
15B
100
AcDbEntity
  8
VRSTVA_1
  0
POLYLINE
  5
15F
330
1F
100
AcDbEntity
  8
VRSTVA_1
 62
     7
100
AcDb2dPolyline
 66
     1
 10
0.0
 20
0.0
 30
0.0
  0
VERTEX
  5
160
330
15F
100
AcDbEntity
  8
VRSTVA_1
 62
     7
100
AcDbVertex
100
AcDb2dVertex
 10
92.4059013983395
 20
184.3143310086089
 30
0.0
  0
VERTEX
  5
161
330
15F
100
AcDbEntity
  8
VRSTVA_1
 62
     7
100
AcDbVertex
100
AcDb2dVertex
 10
90.42255992748117
 20
184.3143310086089
 30
0.0
  0
SEQEND
  5
162
330
15F
100
AcDbEntity
  8
VRSTVA_1
  0
POLYLINE
  5
163
330
1F
100
AcDbEntity
  8
VRSTVA_1
 62
     7
100
AcDb2dPolyline
 66
     1
 10
0.0
 20
0.0
 30
0.0
  0
VERTEX
  5
164
330
163
100
AcDbEntity
  8
VRSTVA_1
 62
     7
100
AcDbVertex
100
AcDb2dVertex
 10
92.4059013983395
 20
184.3651461670163
 30
0.0
  0
VERTEX
  5
165
330
163
100
AcDbEntity
  8
VRSTVA_1
 62
     7
100
AcDbVertex
100
AcDb2dVertex
 10
90.61204017916991
 20
184.3651461670163
 30
0.0
  0
SEQEND
  5
166
330
163
100
AcDbEntity
  8
VRSTVA_1
  0
POLYLINE
  5
167
330
1F
100
AcDbEntity
  8
VRSTVA_1
 62
     7
100
AcDb2dPolyline
 66
     1
 10
0.0
 20
0.0
 30
0.0
  0
VERTEX
  5
168
330
167
100
AcDbEntity
  8
VRSTVA_1
 62
     7
100
AcDbVertex
100
AcDb2dVertex
 10
92.4059013983395
 20
184.4159613254238
 30
0.0
  0
VERTEX
  5
169
330
167
100
AcDbEntity
  8
VRSTVA_1
 62
     7
100
AcDbVertex
100
AcDb2dVertex
 10
90.80186494040717
 20
184.4159613254238
 30
0.0
  0
SEQEND
  5
16A
330
167
100
AcDbEntity
  8
VRSTVA_1
  0
POLYLINE
  5
16B
330
1F
100
AcDbEntity
  8
VRSTVA_1
 62
     7
100
AcDb2dPolyline
 66
     1
 10
0.0
 20
0.0
 30
0.0
  0
VERTEX
  5
16C
330
16B
100
AcDbEntity
  8
VRSTVA_1
 62
     7
100
AcDbVertex
100
AcDb2dVertex
 10
92.4059013983395
 20
184.4667764838312
 30
0.0
  0
VERTEX
  5
16D
330
16B
100
AcDbEntity
  8
VRSTVA_1
 62
     7
100
AcDbVertex
100
AcDb2dVertex
 10
90.99134519209592
 20
184.4667764838312
 30
0.0
  0
SEQEND
  5
16E
330
16B
100
AcDbEntity
  8
VRSTVA_1
  0
POLYLINE
  5
16F
330
1F
100
AcDbEntity
  8
VRSTVA_1
 62
     7
100
AcDb2dPolyline
 66
     1
 10
0.0
 20
0.0
 30
0.0
  0
VERTEX
  5
170
330
16F
100
AcDbEntity
  8
VRSTVA_1
 62
     7
100
AcDbVertex
100
AcDb2dVertex
 10
92.4059013983395
 20
184.5175916422387
 30
0.0
  0
VERTEX
  5
171
330
16F
100
AcDbEntity
  8
VRSTVA_1
 62
     7
100
AcDbVertex
100
AcDb2dVertex
 10
91.18099769855893
 20
184.5175916422387
 30
0.0
  0
SEQEND
  5
172
330
16F
100
AcDbEntity
  8
VRSTVA_1
  0
POLYLINE
  5
173
330
1F
100
AcDbEntity
  8
VRSTVA_1
 62
     7
100
AcDb2dPolyline
 66
     1
 10
0.0
 20
0.0
 30
0.0
  0
VERTEX
  5
174
330
173
100
AcDbEntity
  8
VRSTVA_1
 62
     7
100
AcDbVertex
100
AcDb2dVertex
 10
92.4059013983395
 20
184.5684068006461
 30
0.0
  0
VERTEX
  5
175
330
173
100
AcDbEntity
  8
VRSTVA_1
 62
     7
100
AcDbVertex
100
AcDb2dVertex
 10
91.37047795024766
 20
184.5684068006461
 30
0.0
  0
SEQEND
  5
176
330
173
100
AcDbEntity
  8
VRSTVA_1
  0
POLYLINE
  5
177
330
1F
100
AcDbEntity
  8
VRSTVA_1
 62
     7
100
AcDb2dPolyline
 66
     1
 10
0.0
 20
0.0
 30
0.0
  0
VERTEX
  5
178
330
177
100
AcDbEntity
  8
VRSTVA_1
 62
     7
100
AcDbVertex
100
AcDb2dVertex
 10
92.4059013983395
 20
184.6192219590535
 30
0.0
  0
VERTEX
  5
179
330
177
100
AcDbEntity
  8
VRSTVA_1
 62
     7
100
AcDbVertex
100
AcDb2dVertex
 10
91.5599582019364
 20
184.6192219590535
 30
0.0
  0
SEQEND
  5
17A
330
177
100
AcDbEntity
  8
VRSTVA_1
  0
POLYLINE
  5
17B
330
1F
100
AcDbEntity
  8
VRSTVA_1
 62
     7
100
AcDb2dPolyline
 66
     1
 10
0.0
 20
0.0
 30
0.0
  0
VERTEX
  5
17C
330
17B
100
AcDbEntity
  8
VRSTVA_1
 62
     7
100
AcDbVertex
100
AcDb2dVertex
 10
92.4059013983395
 20
184.670037117461
 30
0.0
  0
VERTEX
  5
17D
330
17B
100
AcDbEntity
  8
VRSTVA_1
 62
     7
100
AcDbVertex
100
AcDb2dVertex
 10
91.74978296317367
 20
184.670037117461
 30
0.0
  0
SEQEND
  5
17E
330
17B
100
AcDbEntity
  8
VRSTVA_1
  0
POLYLINE
  5
17F
330
1F
100
AcDbEntity
  8
VRSTVA_1
 62
     7
100
AcDb2dPolyline
 66
     1
 10
0.0
 20
0.0
 30
0.0
  0
VERTEX
  5
180
330
17F
100
AcDbEntity
  8
VRSTVA_1
 62
     7
100
AcDbVertex
100
AcDb2dVertex
 10
92.4059013983395
 20
184.7208522758684
 30
0.0
  0
VERTEX
  5
181
330
17F
100
AcDbEntity
  8
VRSTVA_1
 62
     7
100
AcDbVertex
100
AcDb2dVertex
 10
91.93926321486241
 20
184.7208522758684
 30
0.0
  0
SEQEND
  5
182
330
17F
100
AcDbEntity
  8
VRSTVA_1
  0
POLYLINE
  5
183
330
1F
100
AcDbEntity
  8
VRSTVA_1
 62
     7
100
AcDb2dPolyline
 66
     1
 10
0.0
 20
0.0
 30
0.0
  0
VERTEX
  5
184
330
183
100
AcDbEntity
  8
VRSTVA_1
 62
     7
100
AcDbVertex
100
AcDb2dVertex
 10
92.4059013983395
 20
184.7716674342759
 30
0.0
  0
VERTEX
  5
185
330
183
100
AcDbEntity
  8
VRSTVA_1
 62
     7
100
AcDbVertex
100
AcDb2dVertex
 10
92.12891572132541
 20
184.7716674342759
 30
0.0
  0
SEQEND
  5
186
330
183
100
AcDbEntity
  8
VRSTVA_1
  0
POLYLINE
  5
187
330
1F
100
AcDbEntity
  8
VRSTVA_1
 62
     7
100
AcDb2dPolyline
 66
     1
 10
0.0
 20
0.0
 30
0.0
  0
VERTEX
  5
188
330
187
100
AcDbEntity
  8
VRSTVA_1
 62
     7
100
AcDbVertex
100
AcDb2dVertex
 10
92.4059013983395
 20
184.8224825926833
 30
0.0
  0
VERTEX
  5
189
330
187
100
AcDbEntity
  8
VRSTVA_1
 62
     7
100
AcDbVertex
100
AcDb2dVertex
 10
92.31839597301415
 20
184.8224825926833
 30
0.0
  0
SEQEND
  5
18A
330
187
100
AcDbEntity
  8
VRSTVA_1
  0
POLYLINE
  5
18B
330
1F
100
AcDbEntity
  8
VRSTVA_1
 62
     7
100
AcDb2dPolyline
 66
     1
 10
0.0
 20
0.0
 30
0.0
  0
VERTEX
  5
18C
330
18B
100
AcDbEntity
  8
VRSTVA_1
 62
     7
100
AcDbVertex
100
AcDb2dVertex
 10
92.4059013983395
 20
184.8224825926833
 30
0.0
  0
VERTEX
  5
18D
330
18B
100
AcDbEntity
  8
VRSTVA_1
 62
     7
100
AcDbVertex
100
AcDb2dVertex
 10
92.31839597301415
 20
184.8224825926833
 30
0.0
  0
SEQEND
  5
18E
330
18B
100
AcDbEntity
  8
VRSTVA_1
  0
POLYLINE
  5
18F
330
1F
100
AcDbEntity
  8
VRSTVA_1
 62
     7
100
AcDb2dPolyline
 66
     1
 10
0.0
 20
0.0
 30
0.0
  0
VERTEX
  5
190
330
18F
100
AcDbEntity
  8
VRSTVA_1
 62
     7
100
AcDbVertex
100
AcDb2dVertex
 10
92.4059013983395
 20
183.9079819961237
 30
0.0
  0
VERTEX
  5
191
330
18F
100
AcDbEntity
  8
VRSTVA_1
 62
     7
100
AcDbVertex
100
AcDb2dVertex
 10
88.9060288948742
 20
183.9079819961237
 30
0.0
  0
SEQEND
  5
192
330
18F
100
AcDbEntity
  8
VRSTVA_1
  0
POLYLINE
  5
193
330
1F
100
AcDbEntity
  8
VRSTVA_1
 62
     7
100
AcDb2dPolyline
 66
     1
 10
0.0
 20
0.0
 30
0.0
  0
VERTEX
  5
194
330
193
100
AcDbEntity
  8
VRSTVA_1
 62
     7
100
AcDbVertex
100
AcDb2dVertex
 10
92.4059013983395
 20
183.8571668377163
 30
0.0
  0
VERTEX
  5
195
330
193
100
AcDbEntity
  8
VRSTVA_1
 62
     7
100
AcDbVertex
100
AcDb2dVertex
 10
89.09550914656293
 20
183.8571668377163
 30
0.0
  0
SEQEND
  5
196
330
193
100
AcDbEntity
  8
VRSTVA_1
  0
POLYLINE
  5
197
330
1F
100
AcDbEntity
  8
VRSTVA_1
 62
     7
100
AcDb2dPolyline
 66
     1
 10
0.0
 20
0.0
 30
0.0
  0
VERTEX
  5
198
330
197
100
AcDbEntity
  8
VRSTVA_1
 62
     7
100
AcDbVertex
100
AcDb2dVertex
 10
92.4059013983395
 20
183.8063516793088
 30
0.0
  0
VERTEX
  5
199
330
197
100
AcDbEntity
  8
VRSTVA_1
 62
     7
100
AcDbVertex
100
AcDb2dVertex
 10
89.28481714347741
 20
183.8063516793088
 30
0.0
  0
SEQEND
  5
19A
330
197
100
AcDbEntity
  8
VRSTVA_1
  0
POLYLINE
  5
19B
330
1F
100
AcDbEntity
  8
VRSTVA_1
 62
     7
100
AcDb2dPolyline
 66
     1
 10
0.0
 20
0.0
 30
0.0
  0
VERTEX
  5
19C
330
19B
100
AcDbEntity
  8
VRSTVA_1
 62
     7
100
AcDbVertex
100
AcDb2dVertex
 10
92.4059013983395
 20
183.7555365209014
 30
0.0
  0
VERTEX
  5
19D
330
19B
100
AcDbEntity
  8
VRSTVA_1
 62
     7
100
AcDbVertex
100
AcDb2dVertex
 10
89.47464190471467
 20
183.7555365209014
 30
0.0
  0
SEQEND
  5
19E
330
19B
100
AcDbEntity
  8
VRSTVA_1
  0
POLYLINE
  5
19F
330
1F
100
AcDbEntity
  8
VRSTVA_1
 62
     7
100
AcDb2dPolyline
 66
     1
 10
0.0
 20
0.0
 30
0.0
  0
VERTEX
  5
1A0
330
19F
100
AcDbEntity
  8
VRSTVA_1
 62
     7
100
AcDbVertex
100
AcDb2dVertex
 10
92.4059013983395
 20
183.704721362494
 30
0.0
  0
VERTEX
  5
1A1
330
19F
100
AcDbEntity
  8
VRSTVA_1
 62
     7
100
AcDbVertex
100
AcDb2dVertex
 10
89.66412215640342
 20
183.704721362494
 30
0.0
  0
SEQEND
  5
1A2
330
19F
100
AcDbEntity
  8
VRSTVA_1
  0
POLYLINE
  5
1A3
330
1F
100
AcDbEntity
  8
VRSTVA_1
 62
     7
100
AcDb2dPolyline
 66
     1
 10
0.0
 20
0.0
 30
0.0
  0
VERTEX
  5
1A4
330
1A3
100
AcDbEntity
  8
VRSTVA_1
 62
     7
100
AcDbVertex
100
AcDb2dVertex
 10
92.4059013983395
 20
183.6539062040865
 30
0.0
  0
VERTEX
  5
1A5
330
1A3
100
AcDbEntity
  8
VRSTVA_1
 62
     7
100
AcDbVertex
100
AcDb2dVertex
 10
89.85394691764068
 20
183.6539062040865
 30
0.0
  0
SEQEND
  5
1A6
330
1A3
100
AcDbEntity
  8
VRSTVA_1
  0
POLYLINE
  5
1A7
330
1F
100
AcDbEntity
  8
VRSTVA_1
 62
     7
100
AcDb2dPolyline
 66
     1
 10
0.0
 20
0.0
 30
0.0
  0
VERTEX
  5
1A8
330
1A7
100
AcDbEntity
  8
VRSTVA_1
 62
     7
100
AcDbVertex
100
AcDb2dVertex
 10
92.4059013983395
 20
183.6032633004534
 30
0.0
  0
VERTEX
  5
1A9
330
1A7
100
AcDbEntity
  8
VRSTVA_1
 62
     7
100
AcDbVertex
100
AcDb2dVertex
 10
90.04342716932942
 20
183.6032633004534
 30
0.0
  0
SEQEND
  5
1AA
330
1A7
100
AcDbEntity
  8
VRSTVA_1
  0
POLYLINE
  5
1AB
330
1F
100
AcDbEntity
  8
VRSTVA_1
 62
     7
100
AcDb2dPolyline
 66
     1
 10
0.0
 20
0.0
 30
0.0
  0
VERTEX
  5
1AC
330
1AB
100
AcDbEntity
  8
VRSTVA_1
 62
     7
100
AcDbVertex
100
AcDb2dVertex
 10
92.4059013983395
 20
183.5524481420459
 30
0.0
  0
VERTEX
  5
1AD
330
1AB
100
AcDbEntity
  8
VRSTVA_1
 62
     7
100
AcDbVertex
100
AcDb2dVertex
 10
90.2327351662439
 20
183.5524481420459
 30
0.0
  0
SEQEND
  5
1AE
330
1AB
100
AcDbEntity
  8
VRSTVA_1
  0
POLYLINE
  5
1AF
330
1F
100
AcDbEntity
  8
VRSTVA_1
 62
     7
100
AcDb2dPolyline
 66
     1
 10
0.0
 20
0.0
 30
0.0
  0
VERTEX
  5
1B0
330
1AF
100
AcDbEntity
  8
VRSTVA_1
 62
     7
100
AcDbVertex
100
AcDb2dVertex
 10
92.4059013983395
 20
183.5016329836385
 30
0.0
  0
VERTEX
  5
1B1
330
1AF
100
AcDbEntity
  8
VRSTVA_1
 62
     7
100
AcDbVertex
100
AcDb2dVertex
 10
90.42255992748117
 20
183.5016329836385
 30
0.0
  0
SEQEND
  5
1B2
330
1AF
100
AcDbEntity
  8
VRSTVA_1
  0
POLYLINE
  5
1B3
330
1F
100
AcDbEntity
  8
VRSTVA_1
 62
     7
100
AcDb2dPolyline
 66
     1
 10
0.0
 20
0.0
 30
0.0
  0
VERTEX
  5
1B4
330
1B3
100
AcDbEntity
  8
VRSTVA_1
 62
     7
100
AcDbVertex
100
AcDb2dVertex
 10
92.4059013983395
 20
183.450817825231
 30
0.0
  0
VERTEX
  5
1B5
330
1B3
100
AcDbEntity
  8
VRSTVA_1
 62
     7
100
AcDbVertex
100
AcDb2dVertex
 10
90.61204017916991
 20
183.450817825231
 30
0.0
  0
SEQEND
  5
1B6
330
1B3
100
AcDbEntity
  8
VRSTVA_1
  0
POLYLINE
  5
1B7
330
1F
100
AcDbEntity
  8
VRSTVA_1
 62
     7
100
AcDb2dPolyline
 66
     1
 10
0.0
 20
0.0
 30
0.0
  0
VERTEX
  5
1B8
330
1B7
100
AcDbEntity
  8
VRSTVA_1
 62
     7
100
AcDbVertex
100
AcDb2dVertex
 10
92.4059013983395
 20
183.4000026668236
 30
0.0
  0
VERTEX
  5
1B9
330
1B7
100
AcDbEntity
  8
VRSTVA_1
 62
     7
100
AcDbVertex
100
AcDb2dVertex
 10
90.80186494040717
 20
183.4000026668236
 30
0.0
  0
SEQEND
  5
1BA
330
1B7
100
AcDbEntity
  8
VRSTVA_1
  0
POLYLINE
  5
1BB
330
1F
100
AcDbEntity
  8
VRSTVA_1
 62
     7
100
AcDb2dPolyline
 66
     1
 10
0.0
 20
0.0
 30
0.0
  0
VERTEX
  5
1BC
330
1BB
100
AcDbEntity
  8
VRSTVA_1
 62
     7
100
AcDbVertex
100
AcDb2dVertex
 10
92.4059013983395
 20
183.3491875084162
 30
0.0
  0
VERTEX
  5
1BD
330
1BB
100
AcDbEntity
  8
VRSTVA_1
 62
     7
100
AcDbVertex
100
AcDb2dVertex
 10
90.99134519209592
 20
183.3491875084162
 30
0.0
  0
SEQEND
  5
1BE
330
1BB
100
AcDbEntity
  8
VRSTVA_1
  0
POLYLINE
  5
1BF
330
1F
100
AcDbEntity
  8
VRSTVA_1
 62
     7
100
AcDb2dPolyline
 66
     1
 10
0.0
 20
0.0
 30
0.0
  0
VERTEX
  5
1C0
330
1BF
100
AcDbEntity
  8
VRSTVA_1
 62
     7
100
AcDbVertex
100
AcDb2dVertex
 10
92.4059013983395
 20
183.2983723500087
 30
0.0
  0
VERTEX
  5
1C1
330
1BF
100
AcDbEntity
  8
VRSTVA_1
 62
     7
100
AcDbVertex
100
AcDb2dVertex
 10
91.18099769855893
 20
183.2983723500087
 30
0.0
  0
SEQEND
  5
1C2
330
1BF
100
AcDbEntity
  8
VRSTVA_1
  0
POLYLINE
  5
1C3
330
1F
100
AcDbEntity
  8
VRSTVA_1
 62
     7
100
AcDb2dPolyline
 66
     1
 10
0.0
 20
0.0
 30
0.0
  0
VERTEX
  5
1C4
330
1C3
100
AcDbEntity
  8
VRSTVA_1
 62
     7
100
AcDbVertex
100
AcDb2dVertex
 10
92.4059013983395
 20
183.2475571916013
 30
0.0
  0
VERTEX
  5
1C5
330
1C3
100
AcDbEntity
  8
VRSTVA_1
 62
     7
100
AcDbVertex
100
AcDb2dVertex
 10
91.37047795024766
 20
183.2475571916013
 30
0.0
  0
SEQEND
  5
1C6
330
1C3
100
AcDbEntity
  8
VRSTVA_1
  0
POLYLINE
  5
1C7
330
1F
100
AcDbEntity
  8
VRSTVA_1
 62
     7
100
AcDb2dPolyline
 66
     1
 10
0.0
 20
0.0
 30
0.0
  0
VERTEX
  5
1C8
330
1C7
100
AcDbEntity
  8
VRSTVA_1
 62
     7
100
AcDbVertex
100
AcDb2dVertex
 10
92.4059013983395
 20
183.1967420331939
 30
0.0
  0
VERTEX
  5
1C9
330
1C7
100
AcDbEntity
  8
VRSTVA_1
 62
     7
100
AcDbVertex
100
AcDb2dVertex
 10
91.5599582019364
 20
183.1967420331939
 30
0.0
  0
SEQEND
  5
1CA
330
1C7
100
AcDbEntity
  8
VRSTVA_1
  0
POLYLINE
  5
1CB
330
1F
100
AcDbEntity
  8
VRSTVA_1
 62
     7
100
AcDb2dPolyline
 66
     1
 10
0.0
 20
0.0
 30
0.0
  0
VERTEX
  5
1CC
330
1CB
100
AcDbEntity
  8
VRSTVA_1
 62
     7
100
AcDbVertex
100
AcDb2dVertex
 10
92.4059013983395
 20
183.1459268747865
 30
0.0
  0
VERTEX
  5
1CD
330
1CB
100
AcDbEntity
  8
VRSTVA_1
 62
     7
100
AcDbVertex
100
AcDb2dVertex
 10
91.74978296317367
 20
183.1459268747865
 30
0.0
  0
SEQEND
  5
1CE
330
1CB
100
AcDbEntity
  8
VRSTVA_1
  0
POLYLINE
  5
1CF
330
1F
100
AcDbEntity
  8
VRSTVA_1
 62
     7
100
AcDb2dPolyline
 66
     1
 10
0.0
 20
0.0
 30
0.0
  0
VERTEX
  5
1D0
330
1CF
100
AcDbEntity
  8
VRSTVA_1
 62
     7
100
AcDbVertex
100
AcDb2dVertex
 10
92.4059013983395
 20
183.095111716379
 30
0.0
  0
VERTEX
  5
1D1
330
1CF
100
AcDbEntity
  8
VRSTVA_1
 62
     7
100
AcDbVertex
100
AcDb2dVertex
 10
91.93926321486241
 20
183.095111716379
 30
0.0
  0
SEQEND
  5
1D2
330
1CF
100
AcDbEntity
  8
VRSTVA_1
  0
POLYLINE
  5
1D3
330
1F
100
AcDbEntity
  8
VRSTVA_1
 62
     7
100
AcDb2dPolyline
 66
     1
 10
0.0
 20
0.0
 30
0.0
  0
VERTEX
  5
1D4
330
1D3
100
AcDbEntity
  8
VRSTVA_1
 62
     7
100
AcDbVertex
100
AcDb2dVertex
 10
92.4059013983395
 20
183.0444688127458
 30
0.0
  0
VERTEX
  5
1D5
330
1D3
100
AcDbEntity
  8
VRSTVA_1
 62
     7
100
AcDbVertex
100
AcDb2dVertex
 10
92.12891572132541
 20
183.0444688127458
 30
0.0
  0
SEQEND
  5
1D6
330
1D3
100
AcDbEntity
  8
VRSTVA_1
  0
POLYLINE
  5
1D7
330
1F
100
AcDbEntity
  8
VRSTVA_1
 62
     7
100
AcDb2dPolyline
 66
     1
 10
0.0
 20
0.0
 30
0.0
  0
VERTEX
  5
1D8
330
1D7
100
AcDbEntity
  8
VRSTVA_1
 62
     7
100
AcDbVertex
100
AcDb2dVertex
 10
92.4059013983395
 20
182.9936536543384
 30
0.0
  0
VERTEX
  5
1D9
330
1D7
100
AcDbEntity
  8
VRSTVA_1
 62
     7
100
AcDbVertex
100
AcDb2dVertex
 10
92.31839597301415
 20
182.9936536543384
 30
0.0
  0
SEQEND
  5
1DA
330
1D7
100
AcDbEntity
  8
VRSTVA_1
  0
POLYLINE
  5
1DB
330
1F
100
AcDbEntity
  8
VRSTVA_1
 62
     7
100
AcDb2dPolyline
 66
     1
 10
0.0
 20
0.0
 30
0.0
  0
VERTEX
  5
1DC
330
1DB
100
AcDbEntity
  8
VRSTVA_1
 62
     7
100
AcDbVertex
100
AcDb2dVertex
 10
92.4059013983395
 20
182.9936536543384
 30
0.0
  0
VERTEX
  5
1DD
330
1DB
100
AcDbEntity
  8
VRSTVA_1
 62
     7
100
AcDbVertex
100
AcDb2dVertex
 10
92.31839597301415
 20
182.9936536543384
 30
0.0
  0
SEQEND
  5
1DE
330
1DB
100
AcDbEntity
  8
VRSTVA_1
  0
POLYLINE
  5
1DF
330
1F
100
AcDbEntity
  8
VRSTVA_1
 62
     7
100
AcDb2dPolyline
 66
     1
 10
0.0
 20
0.0
 30
0.0
  0
VERTEX
  5
1E0
330
1DF
100
AcDbEntity
  8
VRSTVA_1
 62
     7
100
AcDbVertex
100
AcDb2dVertex
 10
92.4059013983395
 20
184.8460814967573
 30
0.0
  0
VERTEX
  5
1E1
330
1DF
100
AcDbEntity
  8
VRSTVA_1
 62
     7
100
AcDbVertex
100
AcDb2dVertex
 10
88.9060288948742
 20
183.9079819961237
 30
0.0
  0
SEQEND
  5
1E2
330
1DF
100
AcDbEntity
  8
VRSTVA_1
  0
POLYLINE
  5
1E3
330
1F
100
AcDbEntity
  8
VRSTVA_1
 62
     7
100
AcDb2dPolyline
 66
     1
 10
0.0
 20
0.0
 30
0.0
  0
VERTEX
  5
1E4
330
1E3
100
AcDbEntity
  8
VRSTVA_1
 62
     7
100
AcDbVertex
100
AcDb2dVertex
 10
92.4059013983395
 20
182.970399259813
 30
0.0
  0
VERTEX
  5
1E5
330
1E3
100
AcDbEntity
  8
VRSTVA_1
 62
     7
100
AcDbVertex
100
AcDb2dVertex
 10
92.4059013983395
 20
184.8460814967573
 30
0.0
  0
SEQEND
  5
1E6
330
1E3
100
AcDbEntity
  8
VRSTVA_1
  0
POLYLINE
  5
1E7
330
1F
100
AcDbEntity
  8
VRSTVA_1
 62
     7
100
AcDb2dPolyline
 66
     1
 10
0.0
 20
0.0
 30
0.0
  0
VERTEX
  5
1E8
330
1E7
100
AcDbEntity
  8
VRSTVA_1
 62
     7
100
AcDbVertex
100
AcDb2dVertex
 10
88.9060288948742
 20
183.9079819961237
 30
0.0
  0
VERTEX
  5
1E9
330
1E7
100
AcDbEntity
  8
VRSTVA_1
 62
     7
100
AcDbVertex
100
AcDb2dVertex
 10
92.4059013983395
 20
182.970399259813
 30
0.0
  0
SEQEND
  5
1EA
330
1E7
100
AcDbEntity
  8
VRSTVA_1
  0
POLYLINE
  5
1EB
330
1F
100
AcDbEntity
  8
VRSTVA_1
 62
     7
100
AcDb2dPolyline
 66
     1
 10
0.0
 20
0.0
 30
0.0
  0
VERTEX
  5
1EC
330
1EB
100
AcDbEntity
  8
VRSTVA_1
 62
     7
100
AcDbVertex
100
AcDb2dVertex
 10
111.4057752542666
 20
183.9079819961237
 30
0.0
  0
VERTEX
  5
1ED
330
1EB
100
AcDbEntity
  8
VRSTVA_1
 62
     7
100
AcDbVertex
100
AcDb2dVertex
 10
114.9056477577319
 20
183.9079819961237
 30
0.0
  0
SEQEND
  5
1EE
330
1EB
100
AcDbEntity
  8
VRSTVA_1
  0
POLYLINE
  5
1EF
330
1F
100
AcDbEntity
  8
VRSTVA_1
 62
     7
100
AcDb2dPolyline
 66
     1
 10
0.0
 20
0.0
 30
0.0
  0
VERTEX
  5
1F0
330
1EF
100
AcDbEntity
  8
VRSTVA_1
 62
     7
100
AcDbVertex
100
AcDb2dVertex
 10
111.4057752542666
 20
183.8571668377163
 30
0.0
  0
VERTEX
  5
1F1
330
1EF
100
AcDbEntity
  8
VRSTVA_1
 62
     7
100
AcDbVertex
100
AcDb2dVertex
 10
114.7161675060432
 20
183.8571668377163
 30
0.0
  0
SEQEND
  5
1F2
330
1EF
100
AcDbEntity
  8
VRSTVA_1
  0
POLYLINE
  5
1F3
330
1F
100
AcDbEntity
  8
VRSTVA_1
 62
     7
100
AcDb2dPolyline
 66
     1
 10
0.0
 20
0.0
 30
0.0
  0
VERTEX
  5
1F4
330
1F3
100
AcDbEntity
  8
VRSTVA_1
 62
     7
100
AcDbVertex
100
AcDb2dVertex
 10
111.4057752542666
 20
183.8063516793088
 30
0.0
  0
VERTEX
  5
1F5
330
1F3
100
AcDbEntity
  8
VRSTVA_1
 62
     7
100
AcDbVertex
100
AcDb2dVertex
 10
114.5266872543544
 20
183.8063516793088
 30
0.0
  0
SEQEND
  5
1F6
330
1F3
100
AcDbEntity
  8
VRSTVA_1
  0
POLYLINE
  5
1F7
330
1F
100
AcDbEntity
  8
VRSTVA_1
 62
     7
100
AcDb2dPolyline
 66
     1
 10
0.0
 20
0.0
 30
0.0
  0
VERTEX
  5
1F8
330
1F7
100
AcDbEntity
  8
VRSTVA_1
 62
     7
100
AcDbVertex
100
AcDb2dVertex
 10
111.4057752542666
 20
183.7555365209014
 30
0.0
  0
VERTEX
  5
1F9
330
1F7
100
AcDbEntity
  8
VRSTVA_1
 62
     7
100
AcDbVertex
100
AcDb2dVertex
 10
114.3372070026657
 20
183.7555365209014
 30
0.0
  0
SEQEND
  5
1FA
330
1F7
100
AcDbEntity
  8
VRSTVA_1
  0
POLYLINE
  5
1FB
330
1F
100
AcDbEntity
  8
VRSTVA_1
 62
     7
100
AcDb2dPolyline
 66
     1
 10
0.0
 20
0.0
 30
0.0
  0
VERTEX
  5
1FC
330
1FB
100
AcDbEntity
  8
VRSTVA_1
 62
     7
100
AcDbVertex
100
AcDb2dVertex
 10
111.4057752542666
 20
183.704721362494
 30
0.0
  0
VERTEX
  5
1FD
330
1FB
100
AcDbEntity
  8
VRSTVA_1
 62
     7
100
AcDbVertex
100
AcDb2dVertex
 10
114.147726750977
 20
183.704721362494
 30
0.0
  0
SEQEND
  5
1FE
330
1FB
100
AcDbEntity
  8
VRSTVA_1
  0
POLYLINE
  5
1FF
330
1F
100
AcDbEntity
  8
VRSTVA_1
 62
     7
100
AcDb2dPolyline
 66
     1
 10
0.0
 20
0.0
 30
0.0
  0
VERTEX
  5
200
330
1FF
100
AcDbEntity
  8
VRSTVA_1
 62
     7
100
AcDbVertex
100
AcDb2dVertex
 10
111.4057752542666
 20
183.6539062040865
 30
0.0
  0
VERTEX
  5
201
330
1FF
100
AcDbEntity
  8
VRSTVA_1
 62
     7
100
AcDbVertex
100
AcDb2dVertex
 10
113.9579019897397
 20
183.6539062040865
 30
0.0
  0
SEQEND
  5
202
330
1FF
100
AcDbEntity
  8
VRSTVA_1
  0
POLYLINE
  5
203
330
1F
100
AcDbEntity
  8
VRSTVA_1
 62
     7
100
AcDb2dPolyline
 66
     1
 10
0.0
 20
0.0
 30
0.0
  0
VERTEX
  5
204
330
203
100
AcDbEntity
  8
VRSTVA_1
 62
     7
100
AcDbVertex
100
AcDb2dVertex
 10
111.4057752542666
 20
183.6032633004534
 30
0.0
  0
VERTEX
  5
205
330
203
100
AcDbEntity
  8
VRSTVA_1
 62
     7
100
AcDbVertex
100
AcDb2dVertex
 10
113.768421738051
 20
183.6032633004534
 30
0.0
  0
SEQEND
  5
206
330
203
100
AcDbEntity
  8
VRSTVA_1
  0
POLYLINE
  5
207
330
1F
100
AcDbEntity
  8
VRSTVA_1
 62
     7
100
AcDb2dPolyline
 66
     1
 10
0.0
 20
0.0
 30
0.0
  0
VERTEX
  5
208
330
207
100
AcDbEntity
  8
VRSTVA_1
 62
     7
100
AcDbVertex
100
AcDb2dVertex
 10
111.4057752542666
 20
183.5524481420459
 30
0.0
  0
VERTEX
  5
209
330
207
100
AcDbEntity
  8
VRSTVA_1
 62
     7
100
AcDbVertex
100
AcDb2dVertex
 10
113.5785969768137
 20
183.5524481420459
 30
0.0
  0
SEQEND
  5
20A
330
207
100
AcDbEntity
  8
VRSTVA_1
  0
POLYLINE
  5
20B
330
1F
100
AcDbEntity
  8
VRSTVA_1
 62
     7
100
AcDb2dPolyline
 66
     1
 10
0.0
 20
0.0
 30
0.0
  0
VERTEX
  5
20C
330
20B
100
AcDbEntity
  8
VRSTVA_1
 62
     7
100
AcDbVertex
100
AcDb2dVertex
 10
111.4057752542666
 20
183.5016329836385
 30
0.0
  0
VERTEX
  5
20D
330
20B
100
AcDbEntity
  8
VRSTVA_1
 62
     7
100
AcDbVertex
100
AcDb2dVertex
 10
113.3891167251249
 20
183.5016329836385
 30
0.0
  0
SEQEND
  5
20E
330
20B
100
AcDbEntity
  8
VRSTVA_1
  0
POLYLINE
  5
20F
330
1F
100
AcDbEntity
  8
VRSTVA_1
 62
     7
100
AcDb2dPolyline
 66
     1
 10
0.0
 20
0.0
 30
0.0
  0
VERTEX
  5
210
330
20F
100
AcDbEntity
  8
VRSTVA_1
 62
     7
100
AcDbVertex
100
AcDb2dVertex
 10
111.4057752542666
 20
183.450817825231
 30
0.0
  0
VERTEX
  5
211
330
20F
100
AcDbEntity
  8
VRSTVA_1
 62
     7
100
AcDbVertex
100
AcDb2dVertex
 10
113.1996364734362
 20
183.450817825231
 30
0.0
  0
SEQEND
  5
212
330
20F
100
AcDbEntity
  8
VRSTVA_1
  0
POLYLINE
  5
213
330
1F
100
AcDbEntity
  8
VRSTVA_1
 62
     7
100
AcDb2dPolyline
 66
     1
 10
0.0
 20
0.0
 30
0.0
  0
VERTEX
  5
214
330
213
100
AcDbEntity
  8
VRSTVA_1
 62
     7
100
AcDbVertex
100
AcDb2dVertex
 10
111.4057752542666
 20
183.4000026668236
 30
0.0
  0
VERTEX
  5
215
330
213
100
AcDbEntity
  8
VRSTVA_1
 62
     7
100
AcDbVertex
100
AcDb2dVertex
 10
113.0098117121989
 20
183.4000026668236
 30
0.0
  0
SEQEND
  5
216
330
213
100
AcDbEntity
  8
VRSTVA_1
  0
POLYLINE
  5
217
330
1F
100
AcDbEntity
  8
VRSTVA_1
 62
     7
100
AcDb2dPolyline
 66
     1
 10
0.0
 20
0.0
 30
0.0
  0
VERTEX
  5
218
330
217
100
AcDbEntity
  8
VRSTVA_1
 62
     7
100
AcDbVertex
100
AcDb2dVertex
 10
111.4057752542666
 20
183.3491875084162
 30
0.0
  0
VERTEX
  5
219
330
217
100
AcDbEntity
  8
VRSTVA_1
 62
     7
100
AcDbVertex
100
AcDb2dVertex
 10
112.8203314605102
 20
183.3491875084162
 30
0.0
  0
SEQEND
  5
21A
330
217
100
AcDbEntity
  8
VRSTVA_1
  0
POLYLINE
  5
21B
330
1F
100
AcDbEntity
  8
VRSTVA_1
 62
     7
100
AcDb2dPolyline
 66
     1
 10
0.0
 20
0.0
 30
0.0
  0
VERTEX
  5
21C
330
21B
100
AcDbEntity
  8
VRSTVA_1
 62
     7
100
AcDbVertex
100
AcDb2dVertex
 10
111.4057752542666
 20
183.2983723500087
 30
0.0
  0
VERTEX
  5
21D
330
21B
100
AcDbEntity
  8
VRSTVA_1
 62
     7
100
AcDbVertex
100
AcDb2dVertex
 10
112.6305066992729
 20
183.2983723500087
 30
0.0
  0
SEQEND
  5
21E
330
21B
100
AcDbEntity
  8
VRSTVA_1
  0
POLYLINE
  5
21F
330
1F
100
AcDbEntity
  8
VRSTVA_1
 62
     7
100
AcDb2dPolyline
 66
     1
 10
0.0
 20
0.0
 30
0.0
  0
VERTEX
  5
220
330
21F
100
AcDbEntity
  8
VRSTVA_1
 62
     7
100
AcDbVertex
100
AcDb2dVertex
 10
111.4057752542666
 20
183.2475571916013
 30
0.0
  0
VERTEX
  5
221
330
21F
100
AcDbEntity
  8
VRSTVA_1
 62
     7
100
AcDbVertex
100
AcDb2dVertex
 10
112.4413709571327
 20
183.2475571916013
 30
0.0
  0
SEQEND
  5
222
330
21F
100
AcDbEntity
  8
VRSTVA_1
  0
POLYLINE
  5
223
330
1F
100
AcDbEntity
  8
VRSTVA_1
 62
     7
100
AcDb2dPolyline
 66
     1
 10
0.0
 20
0.0
 30
0.0
  0
VERTEX
  5
224
330
223
100
AcDbEntity
  8
VRSTVA_1
 62
     7
100
AcDbVertex
100
AcDb2dVertex
 10
111.4057752542666
 20
183.1967420331939
 30
0.0
  0
VERTEX
  5
225
330
223
100
AcDbEntity
  8
VRSTVA_1
 62
     7
100
AcDbVertex
100
AcDb2dVertex
 10
112.251890705444
 20
183.1967420331939
 30
0.0
  0
SEQEND
  5
226
330
223
100
AcDbEntity
  8
VRSTVA_1
  0
POLYLINE
  5
227
330
1F
100
AcDbEntity
  8
VRSTVA_1
 62
     7
100
AcDb2dPolyline
 66
     1
 10
0.0
 20
0.0
 30
0.0
  0
VERTEX
  5
228
330
227
100
AcDbEntity
  8
VRSTVA_1
 62
     7
100
AcDbVertex
100
AcDb2dVertex
 10
111.4057752542666
 20
183.1459268747865
 30
0.0
  0
VERTEX
  5
229
330
227
100
AcDbEntity
  8
VRSTVA_1
 62
     7
100
AcDbVertex
100
AcDb2dVertex
 10
112.0620659442067
 20
183.1459268747865
 30
0.0
  0
SEQEND
  5
22A
330
227
100
AcDbEntity
  8
VRSTVA_1
  0
POLYLINE
  5
22B
330
1F
100
AcDbEntity
  8
VRSTVA_1
 62
     7
100
AcDb2dPolyline
 66
     1
 10
0.0
 20
0.0
 30
0.0
  0
VERTEX
  5
22C
330
22B
100
AcDbEntity
  8
VRSTVA_1
 62
     7
100
AcDbVertex
100
AcDb2dVertex
 10
111.4057752542666
 20
183.095111716379
 30
0.0
  0
VERTEX
  5
22D
330
22B
100
AcDbEntity
  8
VRSTVA_1
 62
     7
100
AcDbVertex
100
AcDb2dVertex
 10
111.872585692518
 20
183.095111716379
 30
0.0
  0
SEQEND
  5
22E
330
22B
100
AcDbEntity
  8
VRSTVA_1
  0
POLYLINE
  5
22F
330
1F
100
AcDbEntity
  8
VRSTVA_1
 62
     7
100
AcDb2dPolyline
 66
     1
 10
0.0
 20
0.0
 30
0.0
  0
VERTEX
  5
230
330
22F
100
AcDbEntity
  8
VRSTVA_1
 62
     7
100
AcDbVertex
100
AcDb2dVertex
 10
111.4057752542666
 20
183.0444688127458
 30
0.0
  0
VERTEX
  5
231
330
22F
100
AcDbEntity
  8
VRSTVA_1
 62
     7
100
AcDbVertex
100
AcDb2dVertex
 10
111.6827609312807
 20
183.0444688127458
 30
0.0
  0
SEQEND
  5
232
330
22F
100
AcDbEntity
  8
VRSTVA_1
  0
POLYLINE
  5
233
330
1F
100
AcDbEntity
  8
VRSTVA_1
 62
     7
100
AcDb2dPolyline
 66
     1
 10
0.0
 20
0.0
 30
0.0
  0
VERTEX
  5
234
330
233
100
AcDbEntity
  8
VRSTVA_1
 62
     7
100
AcDbVertex
100
AcDb2dVertex
 10
111.4057752542666
 20
182.9936536543384
 30
0.0
  0
VERTEX
  5
235
330
233
100
AcDbEntity
  8
VRSTVA_1
 62
     7
100
AcDbVertex
100
AcDb2dVertex
 10
111.493280679592
 20
182.9936536543384
 30
0.0
  0
SEQEND
  5
236
330
233
100
AcDbEntity
  8
VRSTVA_1
  0
POLYLINE
  5
237
330
1F
100
AcDbEntity
  8
VRSTVA_1
 62
     7
100
AcDb2dPolyline
 66
     1
 10
0.0
 20
0.0
 30
0.0
  0
VERTEX
  5
238
330
237
100
AcDbEntity
  8
VRSTVA_1
 62
     7
100
AcDbVertex
100
AcDb2dVertex
 10
111.4057752542666
 20
182.9936536543384
 30
0.0
  0
VERTEX
  5
239
330
237
100
AcDbEntity
  8
VRSTVA_1
 62
     7
100
AcDbVertex
100
AcDb2dVertex
 10
111.493280679592
 20
182.9936536543384
 30
0.0
  0
SEQEND
  5
23A
330
237
100
AcDbEntity
  8
VRSTVA_1
  0
POLYLINE
  5
23B
330
1F
100
AcDbEntity
  8
VRSTVA_1
 62
     7
100
AcDb2dPolyline
 66
     1
 10
0.0
 20
0.0
 30
0.0
  0
VERTEX
  5
23C
330
23B
100
AcDbEntity
  8
VRSTVA_1
 62
     7
100
AcDbVertex
100
AcDb2dVertex
 10
111.4057752542666
 20
183.9079819961237
 30
0.0
  0
VERTEX
  5
23D
330
23B
100
AcDbEntity
  8
VRSTVA_1
 62
     7
100
AcDbVertex
100
AcDb2dVertex
 10
114.9056477577319
 20
183.9079819961237
 30
0.0
  0
SEQEND
  5
23E
330
23B
100
AcDbEntity
  8
VRSTVA_1
  0
POLYLINE
  5
23F
330
1F
100
AcDbEntity
  8
VRSTVA_1
 62
     7
100
AcDb2dPolyline
 66
     1
 10
0.0
 20
0.0
 30
0.0
  0
VERTEX
  5
240
330
23F
100
AcDbEntity
  8
VRSTVA_1
 62
     7
100
AcDbVertex
100
AcDb2dVertex
 10
111.4057752542666
 20
183.9587971545311
 30
0.0
  0
VERTEX
  5
241
330
23F
100
AcDbEntity
  8
VRSTVA_1
 62
     7
100
AcDbVertex
100
AcDb2dVertex
 10
114.7161675060432
 20
183.9587971545311
 30
0.0
  0
SEQEND
  5
242
330
23F
100
AcDbEntity
  8
VRSTVA_1
  0
POLYLINE
  5
243
330
1F
100
AcDbEntity
  8
VRSTVA_1
 62
     7
100
AcDb2dPolyline
 66
     1
 10
0.0
 20
0.0
 30
0.0
  0
VERTEX
  5
244
330
243
100
AcDbEntity
  8
VRSTVA_1
 62
     7
100
AcDbVertex
100
AcDb2dVertex
 10
111.4057752542666
 20
184.0096123129386
 30
0.0
  0
VERTEX
  5
245
330
243
100
AcDbEntity
  8
VRSTVA_1
 62
     7
100
AcDbVertex
100
AcDb2dVertex
 10
114.5266872543544
 20
184.0096123129386
 30
0.0
  0
SEQEND
  5
246
330
243
100
AcDbEntity
  8
VRSTVA_1
  0
POLYLINE
  5
247
330
1F
100
AcDbEntity
  8
VRSTVA_1
 62
     7
100
AcDb2dPolyline
 66
     1
 10
0.0
 20
0.0
 30
0.0
  0
VERTEX
  5
248
330
247
100
AcDbEntity
  8
VRSTVA_1
 62
     7
100
AcDbVertex
100
AcDb2dVertex
 10
111.4057752542666
 20
184.060427471346
 30
0.0
  0
VERTEX
  5
249
330
247
100
AcDbEntity
  8
VRSTVA_1
 62
     7
100
AcDbVertex
100
AcDb2dVertex
 10
114.3372070026657
 20
184.060427471346
 30
0.0
  0
SEQEND
  5
24A
330
247
100
AcDbEntity
  8
VRSTVA_1
  0
POLYLINE
  5
24B
330
1F
100
AcDbEntity
  8
VRSTVA_1
 62
     7
100
AcDb2dPolyline
 66
     1
 10
0.0
 20
0.0
 30
0.0
  0
VERTEX
  5
24C
330
24B
100
AcDbEntity
  8
VRSTVA_1
 62
     7
100
AcDbVertex
100
AcDb2dVertex
 10
111.4057752542666
 20
184.1112426297534
 30
0.0
  0
VERTEX
  5
24D
330
24B
100
AcDbEntity
  8
VRSTVA_1
 62
     7
100
AcDbVertex
100
AcDb2dVertex
 10
114.147726750977
 20
184.1112426297534
 30
0.0
  0
SEQEND
  5
24E
330
24B
100
AcDbEntity
  8
VRSTVA_1
  0
POLYLINE
  5
24F
330
1F
100
AcDbEntity
  8
VRSTVA_1
 62
     7
100
AcDb2dPolyline
 66
     1
 10
0.0
 20
0.0
 30
0.0
  0
VERTEX
  5
250
330
24F
100
AcDbEntity
  8
VRSTVA_1
 62
     7
100
AcDbVertex
100
AcDb2dVertex
 10
111.4057752542666
 20
184.1620577881609
 30
0.0
  0
VERTEX
  5
251
330
24F
100
AcDbEntity
  8
VRSTVA_1
 62
     7
100
AcDbVertex
100
AcDb2dVertex
 10
113.9579019897397
 20
184.1620577881609
 30
0.0
  0
SEQEND
  5
252
330
24F
100
AcDbEntity
  8
VRSTVA_1
  0
POLYLINE
  5
253
330
1F
100
AcDbEntity
  8
VRSTVA_1
 62
     7
100
AcDb2dPolyline
 66
     1
 10
0.0
 20
0.0
 30
0.0
  0
VERTEX
  5
254
330
253
100
AcDbEntity
  8
VRSTVA_1
 62
     7
100
AcDbVertex
100
AcDb2dVertex
 10
111.4057752542666
 20
184.2127006917941
 30
0.0
  0
VERTEX
  5
255
330
253
100
AcDbEntity
  8
VRSTVA_1
 62
     7
100
AcDbVertex
100
AcDb2dVertex
 10
113.768421738051
 20
184.2127006917941
 30
0.0
  0
SEQEND
  5
256
330
253
100
AcDbEntity
  8
VRSTVA_1
  0
POLYLINE
  5
257
330
1F
100
AcDbEntity
  8
VRSTVA_1
 62
     7
100
AcDb2dPolyline
 66
     1
 10
0.0
 20
0.0
 30
0.0
  0
VERTEX
  5
258
330
257
100
AcDbEntity
  8
VRSTVA_1
 62
     7
100
AcDbVertex
100
AcDb2dVertex
 10
111.4057752542666
 20
184.2636881049758
 30
0.0
  0
VERTEX
  5
259
330
257
100
AcDbEntity
  8
VRSTVA_1
 62
     7
100
AcDbVertex
100
AcDb2dVertex
 10
113.5785969768137
 20
184.2636881049758
 30
0.0
  0
SEQEND
  5
25A
330
257
100
AcDbEntity
  8
VRSTVA_1
  0
POLYLINE
  5
25B
330
1F
100
AcDbEntity
  8
VRSTVA_1
 62
     7
100
AcDb2dPolyline
 66
     1
 10
0.0
 20
0.0
 30
0.0
  0
VERTEX
  5
25C
330
25B
100
AcDbEntity
  8
VRSTVA_1
 62
     7
100
AcDbVertex
100
AcDb2dVertex
 10
111.4057752542666
 20
184.3143310086089
 30
0.0
  0
VERTEX
  5
25D
330
25B
100
AcDbEntity
  8
VRSTVA_1
 62
     7
100
AcDbVertex
100
AcDb2dVertex
 10
113.3891167251249
 20
184.3143310086089
 30
0.0
  0
SEQEND
  5
25E
330
25B
100
AcDbEntity
  8
VRSTVA_1
  0
POLYLINE
  5
25F
330
1F
100
AcDbEntity
  8
VRSTVA_1
 62
     7
100
AcDb2dPolyline
 66
     1
 10
0.0
 20
0.0
 30
0.0
  0
VERTEX
  5
260
330
25F
100
AcDbEntity
  8
VRSTVA_1
 62
     7
100
AcDbVertex
100
AcDb2dVertex
 10
111.4057752542666
 20
184.3651461670163
 30
0.0
  0
VERTEX
  5
261
330
25F
100
AcDbEntity
  8
VRSTVA_1
 62
     7
100
AcDbVertex
100
AcDb2dVertex
 10
113.1996364734362
 20
184.3651461670163
 30
0.0
  0
SEQEND
  5
262
330
25F
100
AcDbEntity
  8
VRSTVA_1
  0
POLYLINE
  5
263
330
1F
100
AcDbEntity
  8
VRSTVA_1
 62
     7
100
AcDb2dPolyline
 66
     1
 10
0.0
 20
0.0
 30
0.0
  0
VERTEX
  5
264
330
263
100
AcDbEntity
  8
VRSTVA_1
 62
     7
100
AcDbVertex
100
AcDb2dVertex
 10
111.4057752542666
 20
184.4159613254238
 30
0.0
  0
VERTEX
  5
265
330
263
100
AcDbEntity
  8
VRSTVA_1
 62
     7
100
AcDbVertex
100
AcDb2dVertex
 10
113.0098117121989
 20
184.4159613254238
 30
0.0
  0
SEQEND
  5
266
330
263
100
AcDbEntity
  8
VRSTVA_1
  0
POLYLINE
  5
267
330
1F
100
AcDbEntity
  8
VRSTVA_1
 62
     7
100
AcDb2dPolyline
 66
     1
 10
0.0
 20
0.0
 30
0.0
  0
VERTEX
  5
268
330
267
100
AcDbEntity
  8
VRSTVA_1
 62
     7
100
AcDbVertex
100
AcDb2dVertex
 10
111.4057752542666
 20
184.4667764838312
 30
0.0
  0
VERTEX
  5
269
330
267
100
AcDbEntity
  8
VRSTVA_1
 62
     7
100
AcDbVertex
100
AcDb2dVertex
 10
112.8203314605102
 20
184.4667764838312
 30
0.0
  0
SEQEND
  5
26A
330
267
100
AcDbEntity
  8
VRSTVA_1
  0
POLYLINE
  5
26B
330
1F
100
AcDbEntity
  8
VRSTVA_1
 62
     7
100
AcDb2dPolyline
 66
     1
 10
0.0
 20
0.0
 30
0.0
  0
VERTEX
  5
26C
330
26B
100
AcDbEntity
  8
VRSTVA_1
 62
     7
100
AcDbVertex
100
AcDb2dVertex
 10
111.4057752542666
 20
184.5175916422387
 30
0.0
  0
VERTEX
  5
26D
330
26B
100
AcDbEntity
  8
VRSTVA_1
 62
     7
100
AcDbVertex
100
AcDb2dVertex
 10
112.6305066992729
 20
184.5175916422387
 30
0.0
  0
SEQEND
  5
26E
330
26B
100
AcDbEntity
  8
VRSTVA_1
  0
POLYLINE
  5
26F
330
1F
100
AcDbEntity
  8
VRSTVA_1
 62
     7
100
AcDb2dPolyline
 66
     1
 10
0.0
 20
0.0
 30
0.0
  0
VERTEX
  5
270
330
26F
100
AcDbEntity
  8
VRSTVA_1
 62
     7
100
AcDbVertex
100
AcDb2dVertex
 10
111.4057752542666
 20
184.5684068006461
 30
0.0
  0
VERTEX
  5
271
330
26F
100
AcDbEntity
  8
VRSTVA_1
 62
     7
100
AcDbVertex
100
AcDb2dVertex
 10
112.4413709571327
 20
184.5684068006461
 30
0.0
  0
SEQEND
  5
272
330
26F
100
AcDbEntity
  8
VRSTVA_1
  0
POLYLINE
  5
273
330
1F
100
AcDbEntity
  8
VRSTVA_1
 62
     7
100
AcDb2dPolyline
 66
     1
 10
0.0
 20
0.0
 30
0.0
  0
VERTEX
  5
274
330
273
100
AcDbEntity
  8
VRSTVA_1
 62
     7
100
AcDbVertex
100
AcDb2dVertex
 10
111.4057752542666
 20
184.6192219590535
 30
0.0
  0
VERTEX
  5
275
330
273
100
AcDbEntity
  8
VRSTVA_1
 62
     7
100
AcDbVertex
100
AcDb2dVertex
 10
112.251890705444
 20
184.6192219590535
 30
0.0
  0
SEQEND
  5
276
330
273
100
AcDbEntity
  8
VRSTVA_1
  0
POLYLINE
  5
277
330
1F
100
AcDbEntity
  8
VRSTVA_1
 62
     7
100
AcDb2dPolyline
 66
     1
 10
0.0
 20
0.0
 30
0.0
  0
VERTEX
  5
278
330
277
100
AcDbEntity
  8
VRSTVA_1
 62
     7
100
AcDbVertex
100
AcDb2dVertex
 10
111.4057752542666
 20
184.670037117461
 30
0.0
  0
VERTEX
  5
279
330
277
100
AcDbEntity
  8
VRSTVA_1
 62
     7
100
AcDbVertex
100
AcDb2dVertex
 10
112.0620659442067
 20
184.670037117461
 30
0.0
  0
SEQEND
  5
27A
330
277
100
AcDbEntity
  8
VRSTVA_1
  0
POLYLINE
  5
27B
330
1F
100
AcDbEntity
  8
VRSTVA_1
 62
     7
100
AcDb2dPolyline
 66
     1
 10
0.0
 20
0.0
 30
0.0
  0
VERTEX
  5
27C
330
27B
100
AcDbEntity
  8
VRSTVA_1
 62
     7
100
AcDbVertex
100
AcDb2dVertex
 10
111.4057752542666
 20
184.7208522758684
 30
0.0
  0
VERTEX
  5
27D
330
27B
100
AcDbEntity
  8
VRSTVA_1
 62
     7
100
AcDbVertex
100
AcDb2dVertex
 10
111.872585692518
 20
184.7208522758684
 30
0.0
  0
SEQEND
  5
27E
330
27B
100
AcDbEntity
  8
VRSTVA_1
  0
POLYLINE
  5
27F
330
1F
100
AcDbEntity
  8
VRSTVA_1
 62
     7
100
AcDb2dPolyline
 66
     1
 10
0.0
 20
0.0
 30
0.0
  0
VERTEX
  5
280
330
27F
100
AcDbEntity
  8
VRSTVA_1
 62
     7
100
AcDbVertex
100
AcDb2dVertex
 10
111.4057752542666
 20
184.7716674342759
 30
0.0
  0
VERTEX
  5
281
330
27F
100
AcDbEntity
  8
VRSTVA_1
 62
     7
100
AcDbVertex
100
AcDb2dVertex
 10
111.6827609312807
 20
184.7716674342759
 30
0.0
  0
SEQEND
  5
282
330
27F
100
AcDbEntity
  8
VRSTVA_1
  0
POLYLINE
  5
283
330
1F
100
AcDbEntity
  8
VRSTVA_1
 62
     7
100
AcDb2dPolyline
 66
     1
 10
0.0
 20
0.0
 30
0.0
  0
VERTEX
  5
284
330
283
100
AcDbEntity
  8
VRSTVA_1
 62
     7
100
AcDbVertex
100
AcDb2dVertex
 10
111.4057752542666
 20
184.8224825926833
 30
0.0
  0
VERTEX
  5
285
330
283
100
AcDbEntity
  8
VRSTVA_1
 62
     7
100
AcDbVertex
100
AcDb2dVertex
 10
111.493280679592
 20
184.8224825926833
 30
0.0
  0
SEQEND
  5
286
330
283
100
AcDbEntity
  8
VRSTVA_1
  0
POLYLINE
  5
287
330
1F
100
AcDbEntity
  8
VRSTVA_1
 62
     7
100
AcDb2dPolyline
 66
     1
 10
0.0
 20
0.0
 30
0.0
  0
VERTEX
  5
288
330
287
100
AcDbEntity
  8
VRSTVA_1
 62
     7
100
AcDbVertex
100
AcDb2dVertex
 10
111.4057752542666
 20
184.8224825926833
 30
0.0
  0
VERTEX
  5
289
330
287
100
AcDbEntity
  8
VRSTVA_1
 62
     7
100
AcDbVertex
100
AcDb2dVertex
 10
111.493280679592
 20
184.8224825926833
 30
0.0
  0
SEQEND
  5
28A
330
287
100
AcDbEntity
  8
VRSTVA_1
  0
POLYLINE
  5
28B
330
1F
100
AcDbEntity
  8
VRSTVA_1
 62
     7
100
AcDb2dPolyline
 66
     1
 10
0.0
 20
0.0
 30
0.0
  0
VERTEX
  5
28C
330
28B
100
AcDbEntity
  8
VRSTVA_1
 62
     7
100
AcDbVertex
100
AcDb2dVertex
 10
111.4057752542666
 20
182.970399259813
 30
0.0
  0
VERTEX
  5
28D
330
28B
100
AcDbEntity
  8
VRSTVA_1
 62
     7
100
AcDbVertex
100
AcDb2dVertex
 10
114.9056477577319
 20
183.9079819961237
 30
0.0
  0
SEQEND
  5
28E
330
28B
100
AcDbEntity
  8
VRSTVA_1
  0
POLYLINE
  5
28F
330
1F
100
AcDbEntity
  8
VRSTVA_1
 62
     7
100
AcDb2dPolyline
 66
     1
 10
0.0
 20
0.0
 30
0.0
  0
VERTEX
  5
290
330
28F
100
AcDbEntity
  8
VRSTVA_1
 62
     7
100
AcDbVertex
100
AcDb2dVertex
 10
111.4057752542666
 20
184.8460814967573
 30
0.0
  0
VERTEX
  5
291
330
28F
100
AcDbEntity
  8
VRSTVA_1
 62
     7
100
AcDbVertex
100
AcDb2dVertex
 10
111.4057752542666
 20
182.970399259813
 30
0.0
  0
SEQEND
  5
292
330
28F
100
AcDbEntity
  8
VRSTVA_1
  0
POLYLINE
  5
293
330
1F
100
AcDbEntity
  8
VRSTVA_1
 62
     7
100
AcDb2dPolyline
 66
     1
 10
0.0
 20
0.0
 30
0.0
  0
VERTEX
  5
294
330
293
100
AcDbEntity
  8
VRSTVA_1
 62
     7
100
AcDbVertex
100
AcDb2dVertex
 10
114.9056477577319
 20
183.9079819961237
 30
0.0
  0
VERTEX
  5
295
330
293
100
AcDbEntity
  8
VRSTVA_1
 62
     7
100
AcDbVertex
100
AcDb2dVertex
 10
111.4057752542666
 20
184.8460814967573
 30
0.0
  0
SEQEND
  5
296
330
293
100
AcDbEntity
  8
VRSTVA_1
  0
POLYLINE
  5
297
330
1F
100
AcDbEntity
  8
VRSTVA_1
 62
     7
100
AcDb2dPolyline
 66
     1
 10
0.0
 20
0.0
 30
0.0
  0
VERTEX
  5
298
330
297
100
AcDbEntity
  8
VRSTVA_1
 62
     7
100
AcDbVertex
100
AcDb2dVertex
 10
114.9056477577319
 20
183.9079819961237
 30
0.0
  0
VERTEX
  5
299
330
297
100
AcDbEntity
  8
VRSTVA_1
 62
     7
100
AcDbVertex
100
AcDb2dVertex
 10
88.9060288948742
 20
183.9079819961237
 30
0.0
  0
SEQEND
  5
29A
330
297
100
AcDbEntity
  8
VRSTVA_1
  0
POLYLINE
  5
29B
330
1F
100
AcDbEntity
  8
VRSTVA_1
 62
     7
100
AcDb2dPolyline
 66
     1
 10
0.0
 20
0.0
 30
0.0
  0
VERTEX
  5
29C
330
29B
100
AcDbEntity
  8
VRSTVA_1
 62
     7
100
AcDbVertex
100
AcDb2dVertex
 10
88.9060288948742
 20
151.8654933973635
 30
0.0
  0
VERTEX
  5
29D
330
29B
100
AcDbEntity
  8
VRSTVA_1
 62
     7
100
AcDbVertex
100
AcDb2dVertex
 10
88.9060288948742
 20
184.9080932154917
 30
0.0
  0
SEQEND
  5
29E
330
29B
100
AcDbEntity
  8
VRSTVA_1
  0
POLYLINE
  5
29F
330
1F
100
AcDbEntity
  8
VRSTVA_1
 62
     7
100
AcDb2dPolyline
 66
     1
 10
0.0
 20
0.0
 30
0.0
  0
VERTEX
  5
2A0
330
29F
100
AcDbEntity
  8
VRSTVA_1
 62
     7
100
AcDbVertex
100
AcDb2dVertex
 10
114.9056477577319
 20
173.3384290473772
 30
0.0
  0
VERTEX
  5
2A1
330
29F
100
AcDbEntity
  8
VRSTVA_1
 62
     7
100
AcDbVertex
100
AcDb2dVertex
 10
114.9056477577319
 20
184.9080932154917
 30
0.0
  0
SEQEND
  5
2A2
330
29F
100
AcDbEntity
  8
VRSTVA_1
  0
POLYLINE
  5
2A3
330
1F
100
AcDbEntity
  8
VRSTVA_1
 62
     7
100
AcDb2dPolyline
 66
     1
 10
0.0
 20
0.0
 30
0.0
  0
VERTEX
  5
2A4
330
2A3
100
AcDbEntity
  8
VRSTVA_1
 62
     7
100
AcDbVertex
100
AcDb2dVertex
 10
124.0482421564879
 20
135.8383924356585
 30
0.0
  0
VERTEX
  5
2A5
330
2A3
100
AcDbEntity
  8
VRSTVA_1
 62
     7
100
AcDbVertex
100
AcDb2dVertex
 10
124.0482421564879
 20
132.3381754226446
 30
0.0
  0
SEQEND
  5
2A6
330
2A3
100
AcDbEntity
  8
VRSTVA_1
  0
POLYLINE
  5
2A7
330
1F
100
AcDbEntity
  8
VRSTVA_1
 62
     7
100
AcDb2dPolyline
 66
     1
 10
0.0
 20
0.0
 30
0.0
  0
VERTEX
  5
2A8
330
2A7
100
AcDbEntity
  8
VRSTVA_1
 62
     7
100
AcDbVertex
100
AcDb2dVertex
 10
123.9975992528548
 20
135.8383924356585
 30
0.0
  0
VERTEX
  5
2A9
330
2A7
100
AcDbEntity
  8
VRSTVA_1
 62
     7
100
AcDbVertex
100
AcDb2dVertex
 10
123.9975992528548
 20
132.5280001838819
 30
0.0
  0
SEQEND
  5
2AA
330
2A7
100
AcDbEntity
  8
VRSTVA_1
  0
POLYLINE
  5
2AB
330
1F
100
AcDbEntity
  8
VRSTVA_1
 62
     7
100
AcDb2dPolyline
 66
     1
 10
0.0
 20
0.0
 30
0.0
  0
VERTEX
  5
2AC
330
2AB
100
AcDbEntity
  8
VRSTVA_1
 62
     7
100
AcDbVertex
100
AcDb2dVertex
 10
123.9466118396731
 20
135.8383924356585
 30
0.0
  0
VERTEX
  5
2AD
330
2AB
100
AcDbEntity
  8
VRSTVA_1
 62
     7
100
AcDbVertex
100
AcDb2dVertex
 10
123.9466118396731
 20
132.7174804355706
 30
0.0
  0
SEQEND
  5
2AE
330
2AB
100
AcDbEntity
  8
VRSTVA_1
  0
POLYLINE
  5
2AF
330
1F
100
AcDbEntity
  8
VRSTVA_1
 62
     7
100
AcDb2dPolyline
 66
     1
 10
0.0
 20
0.0
 30
0.0
  0
VERTEX
  5
2B0
330
2AF
100
AcDbEntity
  8
VRSTVA_1
 62
     7
100
AcDbVertex
100
AcDb2dVertex
 10
123.8959689360399
 20
135.8383924356585
 30
0.0
  0
VERTEX
  5
2B1
330
2AF
100
AcDbEntity
  8
VRSTVA_1
 62
     7
100
AcDbVertex
100
AcDb2dVertex
 10
123.8959689360399
 20
132.9073051968079
 30
0.0
  0
SEQEND
  5
2B2
330
2AF
100
AcDbEntity
  8
VRSTVA_1
  0
POLYLINE
  5
2B3
330
1F
100
AcDbEntity
  8
VRSTVA_1
 62
     7
100
AcDb2dPolyline
 66
     1
 10
0.0
 20
0.0
 30
0.0
  0
VERTEX
  5
2B4
330
2B3
100
AcDbEntity
  8
VRSTVA_1
 62
     7
100
AcDbVertex
100
AcDb2dVertex
 10
123.8449815228582
 20
135.8383924356585
 30
0.0
  0
VERTEX
  5
2B5
330
2B3
100
AcDbEntity
  8
VRSTVA_1
 62
     7
100
AcDbVertex
100
AcDb2dVertex
 10
123.8449815228582
 20
133.0967854484966
 30
0.0
  0
SEQEND
  5
2B6
330
2B3
100
AcDbEntity
  8
VRSTVA_1
  0
POLYLINE
  5
2B7
330
1F
100
AcDbEntity
  8
VRSTVA_1
 62
     7
100
AcDb2dPolyline
 66
     1
 10
0.0
 20
0.0
 30
0.0
  0
VERTEX
  5
2B8
330
2B7
100
AcDbEntity
  8
VRSTVA_1
 62
     7
100
AcDbVertex
100
AcDb2dVertex
 10
123.794338619225
 20
135.8383924356585
 30
0.0
  0
VERTEX
  5
2B9
330
2B7
100
AcDbEntity
  8
VRSTVA_1
 62
     7
100
AcDbVertex
100
AcDb2dVertex
 10
123.794338619225
 20
133.2862657001854
 30
0.0
  0
SEQEND
  5
2BA
330
2B7
100
AcDbEntity
  8
VRSTVA_1
  0
POLYLINE
  5
2BB
330
1F
100
AcDbEntity
  8
VRSTVA_1
 62
     7
100
AcDb2dPolyline
 66
     1
 10
0.0
 20
0.0
 30
0.0
  0
VERTEX
  5
2BC
330
2BB
100
AcDbEntity
  8
VRSTVA_1
 62
     7
100
AcDbVertex
100
AcDb2dVertex
 10
123.7433512060433
 20
135.8383924356585
 30
0.0
  0
VERTEX
  5
2BD
330
2BB
100
AcDbEntity
  8
VRSTVA_1
 62
     7
100
AcDbVertex
100
AcDb2dVertex
 10
123.7433512060433
 20
133.4760904614226
 30
0.0
  0
SEQEND
  5
2BE
330
2BB
100
AcDbEntity
  8
VRSTVA_1
  0
POLYLINE
  5
2BF
330
1F
100
AcDbEntity
  8
VRSTVA_1
 62
     7
100
AcDb2dPolyline
 66
     1
 10
0.0
 20
0.0
 30
0.0
  0
VERTEX
  5
2C0
330
2BF
100
AcDbEntity
  8
VRSTVA_1
 62
     7
100
AcDbVertex
100
AcDb2dVertex
 10
123.6927083024102
 20
135.8383924356585
 30
0.0
  0
VERTEX
  5
2C1
330
2BF
100
AcDbEntity
  8
VRSTVA_1
 62
     7
100
AcDbVertex
100
AcDb2dVertex
 10
123.6927083024102
 20
133.6652262035629
 30
0.0
  0
SEQEND
  5
2C2
330
2BF
100
AcDbEntity
  8
VRSTVA_1
  0
POLYLINE
  5
2C3
330
1F
100
AcDbEntity
  8
VRSTVA_1
 62
     7
100
AcDb2dPolyline
 66
     1
 10
0.0
 20
0.0
 30
0.0
  0
VERTEX
  5
2C4
330
2C3
100
AcDbEntity
  8
VRSTVA_1
 62
     7
100
AcDbVertex
100
AcDb2dVertex
 10
123.642065398777
 20
135.8383924356585
 30
0.0
  0
VERTEX
  5
2C5
330
2C3
100
AcDbEntity
  8
VRSTVA_1
 62
     7
100
AcDbVertex
100
AcDb2dVertex
 10
123.642065398777
 20
133.8550509648001
 30
0.0
  0
SEQEND
  5
2C6
330
2C3
100
AcDbEntity
  8
VRSTVA_1
  0
POLYLINE
  5
2C7
330
1F
100
AcDbEntity
  8
VRSTVA_1
 62
     7
100
AcDb2dPolyline
 66
     1
 10
0.0
 20
0.0
 30
0.0
  0
VERTEX
  5
2C8
330
2C7
100
AcDbEntity
  8
VRSTVA_1
 62
     7
100
AcDbVertex
100
AcDb2dVertex
 10
123.5910779855953
 20
135.8383924356585
 30
0.0
  0
VERTEX
  5
2C9
330
2C7
100
AcDbEntity
  8
VRSTVA_1
 62
     7
100
AcDbVertex
100
AcDb2dVertex
 10
123.5910779855953
 20
134.0445312164889
 30
0.0
  0
SEQEND
  5
2CA
330
2C7
100
AcDbEntity
  8
VRSTVA_1
  0
POLYLINE
  5
2CB
330
1F
100
AcDbEntity
  8
VRSTVA_1
 62
     7
100
AcDb2dPolyline
 66
     1
 10
0.0
 20
0.0
 30
0.0
  0
VERTEX
  5
2CC
330
2CB
100
AcDbEntity
  8
VRSTVA_1
 62
     7
100
AcDbVertex
100
AcDb2dVertex
 10
123.5404350819621
 20
135.8383924356585
 30
0.0
  0
VERTEX
  5
2CD
330
2CB
100
AcDbEntity
  8
VRSTVA_1
 62
     7
100
AcDbVertex
100
AcDb2dVertex
 10
123.5404350819621
 20
134.2340114681776
 30
0.0
  0
SEQEND
  5
2CE
330
2CB
100
AcDbEntity
  8
VRSTVA_1
  0
POLYLINE
  5
2CF
330
1F
100
AcDbEntity
  8
VRSTVA_1
 62
     7
100
AcDb2dPolyline
 66
     1
 10
0.0
 20
0.0
 30
0.0
  0
VERTEX
  5
2D0
330
2CF
100
AcDbEntity
  8
VRSTVA_1
 62
     7
100
AcDbVertex
100
AcDb2dVertex
 10
123.4894476687804
 20
135.8383924356585
 30
0.0
  0
VERTEX
  5
2D1
330
2CF
100
AcDbEntity
  8
VRSTVA_1
 62
     7
100
AcDbVertex
100
AcDb2dVertex
 10
123.4894476687804
 20
134.4238362294149
 30
0.0
  0
SEQEND
  5
2D2
330
2CF
100
AcDbEntity
  8
VRSTVA_1
  0
POLYLINE
  5
2D3
330
1F
100
AcDbEntity
  8
VRSTVA_1
 62
     7
100
AcDb2dPolyline
 66
     1
 10
0.0
 20
0.0
 30
0.0
  0
VERTEX
  5
2D4
330
2D3
100
AcDbEntity
  8
VRSTVA_1
 62
     7
100
AcDbVertex
100
AcDb2dVertex
 10
123.4388047651473
 20
135.8383924356585
 30
0.0
  0
VERTEX
  5
2D5
330
2D3
100
AcDbEntity
  8
VRSTVA_1
 62
     7
100
AcDbVertex
100
AcDb2dVertex
 10
123.4388047651473
 20
134.6133164811036
 30
0.0
  0
SEQEND
  5
2D6
330
2D3
100
AcDbEntity
  8
VRSTVA_1
  0
POLYLINE
  5
2D7
330
1F
100
AcDbEntity
  8
VRSTVA_1
 62
     7
100
AcDb2dPolyline
 66
     1
 10
0.0
 20
0.0
 30
0.0
  0
VERTEX
  5
2D8
330
2D7
100
AcDbEntity
  8
VRSTVA_1
 62
     7
100
AcDbVertex
100
AcDb2dVertex
 10
123.3878173519656
 20
135.8383924356585
 30
0.0
  0
VERTEX
  5
2D9
330
2D7
100
AcDbEntity
  8
VRSTVA_1
 62
     7
100
AcDbVertex
100
AcDb2dVertex
 10
123.3878173519656
 20
134.8031412423409
 30
0.0
  0
SEQEND
  5
2DA
330
2D7
100
AcDbEntity
  8
VRSTVA_1
  0
POLYLINE
  5
2DB
330
1F
100
AcDbEntity
  8
VRSTVA_1
 62
     7
100
AcDb2dPolyline
 66
     1
 10
0.0
 20
0.0
 30
0.0
  0
VERTEX
  5
2DC
330
2DB
100
AcDbEntity
  8
VRSTVA_1
 62
     7
100
AcDbVertex
100
AcDb2dVertex
 10
123.3371744483324
 20
135.8383924356585
 30
0.0
  0
VERTEX
  5
2DD
330
2DB
100
AcDbEntity
  8
VRSTVA_1
 62
     7
100
AcDbVertex
100
AcDb2dVertex
 10
123.3371744483324
 20
134.9926214940296
 30
0.0
  0
SEQEND
  5
2DE
330
2DB
100
AcDbEntity
  8
VRSTVA_1
  0
POLYLINE
  5
2DF
330
1F
100
AcDbEntity
  8
VRSTVA_1
 62
     7
100
AcDb2dPolyline
 66
     1
 10
0.0
 20
0.0
 30
0.0
  0
VERTEX
  5
2E0
330
2DF
100
AcDbEntity
  8
VRSTVA_1
 62
     7
100
AcDbVertex
100
AcDb2dVertex
 10
123.2861870351507
 20
135.8383924356585
 30
0.0
  0
VERTEX
  5
2E1
330
2DF
100
AcDbEntity
  8
VRSTVA_1
 62
     7
100
AcDbVertex
100
AcDb2dVertex
 10
123.2861870351507
 20
135.1821017457184
 30
0.0
  0
SEQEND
  5
2E2
330
2DF
100
AcDbEntity
  8
VRSTVA_1
  0
POLYLINE
  5
2E3
330
1F
100
AcDbEntity
  8
VRSTVA_1
 62
     7
100
AcDb2dPolyline
 66
     1
 10
0.0
 20
0.0
 30
0.0
  0
VERTEX
  5
2E4
330
2E3
100
AcDbEntity
  8
VRSTVA_1
 62
     7
100
AcDbVertex
100
AcDb2dVertex
 10
123.2355441315175
 20
135.8383924356585
 30
0.0
  0
VERTEX
  5
2E5
330
2E3
100
AcDbEntity
  8
VRSTVA_1
 62
     7
100
AcDbVertex
100
AcDb2dVertex
 10
123.2355441315175
 20
135.3719265069556
 30
0.0
  0
SEQEND
  5
2E6
330
2E3
100
AcDbEntity
  8
VRSTVA_1
  0
POLYLINE
  5
2E7
330
1F
100
AcDbEntity
  8
VRSTVA_1
 62
     7
100
AcDb2dPolyline
 66
     1
 10
0.0
 20
0.0
 30
0.0
  0
VERTEX
  5
2E8
330
2E7
100
AcDbEntity
  8
VRSTVA_1
 62
     7
100
AcDbVertex
100
AcDb2dVertex
 10
123.1845567183358
 20
135.8383924356585
 30
0.0
  0
VERTEX
  5
2E9
330
2E7
100
AcDbEntity
  8
VRSTVA_1
 62
     7
100
AcDbVertex
100
AcDb2dVertex
 10
123.1845567183358
 20
135.5610622490958
 30
0.0
  0
SEQEND
  5
2EA
330
2E7
100
AcDbEntity
  8
VRSTVA_1
  0
POLYLINE
  5
2EB
330
1F
100
AcDbEntity
  8
VRSTVA_1
 62
     7
100
AcDb2dPolyline
 66
     1
 10
0.0
 20
0.0
 30
0.0
  0
VERTEX
  5
2EC
330
2EB
100
AcDbEntity
  8
VRSTVA_1
 62
     7
100
AcDbVertex
100
AcDb2dVertex
 10
123.1339138147026
 20
135.8383924356585
 30
0.0
  0
VERTEX
  5
2ED
330
2EB
100
AcDbEntity
  8
VRSTVA_1
 62
     7
100
AcDbVertex
100
AcDb2dVertex
 10
123.1339138147026
 20
135.7508870103331
 30
0.0
  0
SEQEND
  5
2EE
330
2EB
100
AcDbEntity
  8
VRSTVA_1
  0
POLYLINE
  5
2EF
330
1F
100
AcDbEntity
  8
VRSTVA_1
 62
     7
100
AcDb2dPolyline
 66
     1
 10
0.0
 20
0.0
 30
0.0
  0
VERTEX
  5
2F0
330
2EF
100
AcDbEntity
  8
VRSTVA_1
 62
     7
100
AcDbVertex
100
AcDb2dVertex
 10
123.1339138147026
 20
135.8383924356585
 30
0.0
  0
VERTEX
  5
2F1
330
2EF
100
AcDbEntity
  8
VRSTVA_1
 62
     7
100
AcDbVertex
100
AcDb2dVertex
 10
123.1339138147026
 20
135.7508870103331
 30
0.0
  0
SEQEND
  5
2F2
330
2EF
100
AcDbEntity
  8
VRSTVA_1
  0
POLYLINE
  5
2F3
330
1F
100
AcDbEntity
  8
VRSTVA_1
 62
     7
100
AcDb2dPolyline
 66
     1
 10
0.0
 20
0.0
 30
0.0
  0
VERTEX
  5
2F4
330
2F3
100
AcDbEntity
  8
VRSTVA_1
 62
     7
100
AcDbVertex
100
AcDb2dVertex
 10
124.0482421564879
 20
135.8383924356585
 30
0.0
  0
VERTEX
  5
2F5
330
2F3
100
AcDbEntity
  8
VRSTVA_1
 62
     7
100
AcDbVertex
100
AcDb2dVertex
 10
124.0482421564879
 20
132.3381754226446
 30
0.0
  0
SEQEND
  5
2F6
330
2F3
100
AcDbEntity
  8
VRSTVA_1
  0
POLYLINE
  5
2F7
330
1F
100
AcDbEntity
  8
VRSTVA_1
 62
     7
100
AcDb2dPolyline
 66
     1
 10
0.0
 20
0.0
 30
0.0
  0
VERTEX
  5
2F8
330
2F7
100
AcDbEntity
  8
VRSTVA_1
 62
     7
100
AcDbVertex
100
AcDb2dVertex
 10
124.0992295696696
 20
135.8383924356585
 30
0.0
  0
VERTEX
  5
2F9
330
2F7
100
AcDbEntity
  8
VRSTVA_1
 62
     7
100
AcDbVertex
100
AcDb2dVertex
 10
124.0992295696696
 20
132.5280001838819
 30
0.0
  0
SEQEND
  5
2FA
330
2F7
100
AcDbEntity
  8
VRSTVA_1
  0
POLYLINE
  5
2FB
330
1F
100
AcDbEntity
  8
VRSTVA_1
 62
     7
100
AcDb2dPolyline
 66
     1
 10
0.0
 20
0.0
 30
0.0
  0
VERTEX
  5
2FC
330
2FB
100
AcDbEntity
  8
VRSTVA_1
 62
     7
100
AcDbVertex
100
AcDb2dVertex
 10
124.1498724733028
 20
135.8383924356585
 30
0.0
  0
VERTEX
  5
2FD
330
2FB
100
AcDbEntity
  8
VRSTVA_1
 62
     7
100
AcDbVertex
100
AcDb2dVertex
 10
124.1498724733028
 20
132.7174804355706
 30
0.0
  0
SEQEND
  5
2FE
330
2FB
100
AcDbEntity
  8
VRSTVA_1
  0
POLYLINE
  5
2FF
330
1F
100
AcDbEntity
  8
VRSTVA_1
 62
     7
100
AcDb2dPolyline
 66
     1
 10
0.0
 20
0.0
 30
0.0
  0
VERTEX
  5
300
330
2FF
100
AcDbEntity
  8
VRSTVA_1
 62
     7
100
AcDbVertex
100
AcDb2dVertex
 10
124.2008598864845
 20
135.8383924356585
 30
0.0
  0
VERTEX
  5
301
330
2FF
100
AcDbEntity
  8
VRSTVA_1
 62
     7
100
AcDbVertex
100
AcDb2dVertex
 10
124.2008598864845
 20
132.9073051968079
 30
0.0
  0
SEQEND
  5
302
330
2FF
100
AcDbEntity
  8
VRSTVA_1
  0
POLYLINE
  5
303
330
1F
100
AcDbEntity
  8
VRSTVA_1
 62
     7
100
AcDb2dPolyline
 66
     1
 10
0.0
 20
0.0
 30
0.0
  0
VERTEX
  5
304
330
303
100
AcDbEntity
  8
VRSTVA_1
 62
     7
100
AcDbVertex
100
AcDb2dVertex
 10
124.2515027901177
 20
135.8383924356585
 30
0.0
  0
VERTEX
  5
305
330
303
100
AcDbEntity
  8
VRSTVA_1
 62
     7
100
AcDbVertex
100
AcDb2dVertex
 10
124.2515027901177
 20
133.0967854484966
 30
0.0
  0
SEQEND
  5
306
330
303
100
AcDbEntity
  8
VRSTVA_1
  0
POLYLINE
  5
307
330
1F
100
AcDbEntity
  8
VRSTVA_1
 62
     7
100
AcDb2dPolyline
 66
     1
 10
0.0
 20
0.0
 30
0.0
  0
VERTEX
  5
308
330
307
100
AcDbEntity
  8
VRSTVA_1
 62
     7
100
AcDbVertex
100
AcDb2dVertex
 10
124.3021456937509
 20
135.8383924356585
 30
0.0
  0
VERTEX
  5
309
330
307
100
AcDbEntity
  8
VRSTVA_1
 62
     7
100
AcDbVertex
100
AcDb2dVertex
 10
124.3021456937509
 20
133.2862657001854
 30
0.0
  0
SEQEND
  5
30A
330
307
100
AcDbEntity
  8
VRSTVA_1
  0
POLYLINE
  5
30B
330
1F
100
AcDbEntity
  8
VRSTVA_1
 62
     7
100
AcDb2dPolyline
 66
     1
 10
0.0
 20
0.0
 30
0.0
  0
VERTEX
  5
30C
330
30B
100
AcDbEntity
  8
VRSTVA_1
 62
     7
100
AcDbVertex
100
AcDb2dVertex
 10
124.3531331069326
 20
135.8383924356585
 30
0.0
  0
VERTEX
  5
30D
330
30B
100
AcDbEntity
  8
VRSTVA_1
 62
     7
100
AcDbVertex
100
AcDb2dVertex
 10
124.3531331069326
 20
133.4760904614226
 30
0.0
  0
SEQEND
  5
30E
330
30B
100
AcDbEntity
  8
VRSTVA_1
  0
POLYLINE
  5
30F
330
1F
100
AcDbEntity
  8
VRSTVA_1
 62
     7
100
AcDb2dPolyline
 66
     1
 10
0.0
 20
0.0
 30
0.0
  0
VERTEX
  5
310
330
30F
100
AcDbEntity
  8
VRSTVA_1
 62
     7
100
AcDbVertex
100
AcDb2dVertex
 10
124.4037760105657
 20
135.8383924356585
 30
0.0
  0
VERTEX
  5
311
330
30F
100
AcDbEntity
  8
VRSTVA_1
 62
     7
100
AcDbVertex
100
AcDb2dVertex
 10
124.4037760105657
 20
133.6652262035629
 30
0.0
  0
SEQEND
  5
312
330
30F
100
AcDbEntity
  8
VRSTVA_1
  0
POLYLINE
  5
313
330
1F
100
AcDbEntity
  8
VRSTVA_1
 62
     7
100
AcDb2dPolyline
 66
     1
 10
0.0
 20
0.0
 30
0.0
  0
VERTEX
  5
314
330
313
100
AcDbEntity
  8
VRSTVA_1
 62
     7
100
AcDbVertex
100
AcDb2dVertex
 10
124.4547634237474
 20
135.8383924356585
 30
0.0
  0
VERTEX
  5
315
330
313
100
AcDbEntity
  8
VRSTVA_1
 62
     7
100
AcDbVertex
100
AcDb2dVertex
 10
124.4547634237474
 20
133.8550509648001
 30
0.0
  0
SEQEND
  5
316
330
313
100
AcDbEntity
  8
VRSTVA_1
  0
POLYLINE
  5
317
330
1F
100
AcDbEntity
  8
VRSTVA_1
 62
     7
100
AcDb2dPolyline
 66
     1
 10
0.0
 20
0.0
 30
0.0
  0
VERTEX
  5
318
330
317
100
AcDbEntity
  8
VRSTVA_1
 62
     7
100
AcDbVertex
100
AcDb2dVertex
 10
124.5054063273806
 20
135.8383924356585
 30
0.0
  0
VERTEX
  5
319
330
317
100
AcDbEntity
  8
VRSTVA_1
 62
     7
100
AcDbVertex
100
AcDb2dVertex
 10
124.5054063273806
 20
134.0445312164889
 30
0.0
  0
SEQEND
  5
31A
330
317
100
AcDbEntity
  8
VRSTVA_1
  0
POLYLINE
  5
31B
330
1F
100
AcDbEntity
  8
VRSTVA_1
 62
     7
100
AcDb2dPolyline
 66
     1
 10
0.0
 20
0.0
 30
0.0
  0
VERTEX
  5
31C
330
31B
100
AcDbEntity
  8
VRSTVA_1
 62
     7
100
AcDbVertex
100
AcDb2dVertex
 10
124.5563937405623
 20
135.8383924356585
 30
0.0
  0
VERTEX
  5
31D
330
31B
100
AcDbEntity
  8
VRSTVA_1
 62
     7
100
AcDbVertex
100
AcDb2dVertex
 10
124.5563937405623
 20
134.2340114681776
 30
0.0
  0
SEQEND
  5
31E
330
31B
100
AcDbEntity
  8
VRSTVA_1
  0
POLYLINE
  5
31F
330
1F
100
AcDbEntity
  8
VRSTVA_1
 62
     7
100
AcDb2dPolyline
 66
     1
 10
0.0
 20
0.0
 30
0.0
  0
VERTEX
  5
320
330
31F
100
AcDbEntity
  8
VRSTVA_1
 62
     7
100
AcDbVertex
100
AcDb2dVertex
 10
124.6070366441955
 20
135.8383924356585
 30
0.0
  0
VERTEX
  5
321
330
31F
100
AcDbEntity
  8
VRSTVA_1
 62
     7
100
AcDbVertex
100
AcDb2dVertex
 10
124.6070366441955
 20
134.4238362294149
 30
0.0
  0
SEQEND
  5
322
330
31F
100
AcDbEntity
  8
VRSTVA_1
  0
POLYLINE
  5
323
330
1F
100
AcDbEntity
  8
VRSTVA_1
 62
     7
100
AcDb2dPolyline
 66
     1
 10
0.0
 20
0.0
 30
0.0
  0
VERTEX
  5
324
330
323
100
AcDbEntity
  8
VRSTVA_1
 62
     7
100
AcDbVertex
100
AcDb2dVertex
 10
124.6580240573772
 20
135.8383924356585
 30
0.0
  0
VERTEX
  5
325
330
323
100
AcDbEntity
  8
VRSTVA_1
 62
     7
100
AcDbVertex
100
AcDb2dVertex
 10
124.6580240573772
 20
134.6133164811036
 30
0.0
  0
SEQEND
  5
326
330
323
100
AcDbEntity
  8
VRSTVA_1
  0
POLYLINE
  5
327
330
1F
100
AcDbEntity
  8
VRSTVA_1
 62
     7
100
AcDb2dPolyline
 66
     1
 10
0.0
 20
0.0
 30
0.0
  0
VERTEX
  5
328
330
327
100
AcDbEntity
  8
VRSTVA_1
 62
     7
100
AcDbVertex
100
AcDb2dVertex
 10
124.7086669610103
 20
135.8383924356585
 30
0.0
  0
VERTEX
  5
329
330
327
100
AcDbEntity
  8
VRSTVA_1
 62
     7
100
AcDbVertex
100
AcDb2dVertex
 10
124.7086669610103
 20
134.8031412423409
 30
0.0
  0
SEQEND
  5
32A
330
327
100
AcDbEntity
  8
VRSTVA_1
  0
POLYLINE
  5
32B
330
1F
100
AcDbEntity
  8
VRSTVA_1
 62
     7
100
AcDb2dPolyline
 66
     1
 10
0.0
 20
0.0
 30
0.0
  0
VERTEX
  5
32C
330
32B
100
AcDbEntity
  8
VRSTVA_1
 62
     7
100
AcDbVertex
100
AcDb2dVertex
 10
124.759654374192
 20
135.8383924356585
 30
0.0
  0
VERTEX
  5
32D
330
32B
100
AcDbEntity
  8
VRSTVA_1
 62
     7
100
AcDbVertex
100
AcDb2dVertex
 10
124.759654374192
 20
134.9926214940296
 30
0.0
  0
SEQEND
  5
32E
330
32B
100
AcDbEntity
  8
VRSTVA_1
  0
POLYLINE
  5
32F
330
1F
100
AcDbEntity
  8
VRSTVA_1
 62
     7
100
AcDb2dPolyline
 66
     1
 10
0.0
 20
0.0
 30
0.0
  0
VERTEX
  5
330
330
32F
100
AcDbEntity
  8
VRSTVA_1
 62
     7
100
AcDbVertex
100
AcDb2dVertex
 10
124.8102972778252
 20
135.8383924356585
 30
0.0
  0
VERTEX
  5
331
330
32F
100
AcDbEntity
  8
VRSTVA_1
 62
     7
100
AcDbVertex
100
AcDb2dVertex
 10
124.8102972778252
 20
135.1821017457184
 30
0.0
  0
SEQEND
  5
332
330
32F
100
AcDbEntity
  8
VRSTVA_1
  0
POLYLINE
  5
333
330
1F
100
AcDbEntity
  8
VRSTVA_1
 62
     7
100
AcDb2dPolyline
 66
     1
 10
0.0
 20
0.0
 30
0.0
  0
VERTEX
  5
334
330
333
100
AcDbEntity
  8
VRSTVA_1
 62
     7
100
AcDbVertex
100
AcDb2dVertex
 10
124.8612846910069
 20
135.8383924356585
 30
0.0
  0
VERTEX
  5
335
330
333
100
AcDbEntity
  8
VRSTVA_1
 62
     7
100
AcDbVertex
100
AcDb2dVertex
 10
124.8612846910069
 20
135.3719265069556
 30
0.0
  0
SEQEND
  5
336
330
333
100
AcDbEntity
  8
VRSTVA_1
  0
POLYLINE
  5
337
330
1F
100
AcDbEntity
  8
VRSTVA_1
 62
     7
100
AcDb2dPolyline
 66
     1
 10
0.0
 20
0.0
 30
0.0
  0
VERTEX
  5
338
330
337
100
AcDbEntity
  8
VRSTVA_1
 62
     7
100
AcDbVertex
100
AcDb2dVertex
 10
124.9119275946401
 20
135.8383924356585
 30
0.0
  0
VERTEX
  5
339
330
337
100
AcDbEntity
  8
VRSTVA_1
 62
     7
100
AcDbVertex
100
AcDb2dVertex
 10
124.9119275946401
 20
135.5610622490958
 30
0.0
  0
SEQEND
  5
33A
330
337
100
AcDbEntity
  8
VRSTVA_1
  0
POLYLINE
  5
33B
330
1F
100
AcDbEntity
  8
VRSTVA_1
 62
     7
100
AcDb2dPolyline
 66
     1
 10
0.0
 20
0.0
 30
0.0
  0
VERTEX
  5
33C
330
33B
100
AcDbEntity
  8
VRSTVA_1
 62
     7
100
AcDbVertex
100
AcDb2dVertex
 10
124.9625704982733
 20
135.8383924356585
 30
0.0
  0
VERTEX
  5
33D
330
33B
100
AcDbEntity
  8
VRSTVA_1
 62
     7
100
AcDbVertex
100
AcDb2dVertex
 10
124.9625704982733
 20
135.7508870103331
 30
0.0
  0
SEQEND
  5
33E
330
33B
100
AcDbEntity
  8
VRSTVA_1
  0
POLYLINE
  5
33F
330
1F
100
AcDbEntity
  8
VRSTVA_1
 62
     7
100
AcDb2dPolyline
 66
     1
 10
0.0
 20
0.0
 30
0.0
  0
VERTEX
  5
340
330
33F
100
AcDbEntity
  8
VRSTVA_1
 62
     7
100
AcDbVertex
100
AcDb2dVertex
 10
124.9625704982733
 20
135.8383924356585
 30
0.0
  0
VERTEX
  5
341
330
33F
100
AcDbEntity
  8
VRSTVA_1
 62
     7
100
AcDbVertex
100
AcDb2dVertex
 10
124.9625704982733
 20
135.7508870103331
 30
0.0
  0
SEQEND
  5
342
330
33F
100
AcDbEntity
  8
VRSTVA_1
  0
POLYLINE
  5
343
330
1F
100
AcDbEntity
  8
VRSTVA_1
 62
     7
100
AcDb2dPolyline
 66
     1
 10
0.0
 20
0.0
 30
0.0
  0
VERTEX
  5
344
330
343
100
AcDbEntity
  8
VRSTVA_1
 62
     7
100
AcDbVertex
100
AcDb2dVertex
 10
123.1104871654029
 20
135.8383924356585
 30
0.0
  0
VERTEX
  5
345
330
343
100
AcDbEntity
  8
VRSTVA_1
 62
     7
100
AcDbVertex
100
AcDb2dVertex
 10
124.0482421564879
 20
132.3381754226446
 30
0.0
  0
SEQEND
  5
346
330
343
100
AcDbEntity
  8
VRSTVA_1
  0
POLYLINE
  5
347
330
1F
100
AcDbEntity
  8
VRSTVA_1
 62
     7
100
AcDb2dPolyline
 66
     1
 10
0.0
 20
0.0
 30
0.0
  0
VERTEX
  5
348
330
347
100
AcDbEntity
  8
VRSTVA_1
 62
     7
100
AcDbVertex
100
AcDb2dVertex
 10
124.9863416571215
 20
135.8383924356585
 30
0.0
  0
VERTEX
  5
349
330
347
100
AcDbEntity
  8
VRSTVA_1
 62
     7
100
AcDbVertex
100
AcDb2dVertex
 10
123.1104871654029
 20
135.8383924356585
 30
0.0
  0
SEQEND
  5
34A
330
347
100
AcDbEntity
  8
VRSTVA_1
  0
POLYLINE
  5
34B
330
1F
100
AcDbEntity
  8
VRSTVA_1
 62
     7
100
AcDb2dPolyline
 66
     1
 10
0.0
 20
0.0
 30
0.0
  0
VERTEX
  5
34C
330
34B
100
AcDbEntity
  8
VRSTVA_1
 62
     7
100
AcDbVertex
100
AcDb2dVertex
 10
124.0482421564879
 20
132.3381754226446
 30
0.0
  0
VERTEX
  5
34D
330
34B
100
AcDbEntity
  8
VRSTVA_1
 62
     7
100
AcDbVertex
100
AcDb2dVertex
 10
124.9863416571215
 20
135.8383924356585
 30
0.0
  0
SEQEND
  5
34E
330
34B
100
AcDbEntity
  8
VRSTVA_1
  0
POLYLINE
  5
34F
330
1F
100
AcDbEntity
  8
VRSTVA_1
 62
     7
100
AcDb2dPolyline
 66
     1
 10
0.0
 20
0.0
 30
0.0
  0
VERTEX
  5
350
330
34F
100
AcDbEntity
  8
VRSTVA_1
 62
     7
100
AcDbVertex
100
AcDb2dVertex
 10
124.0482421564879
 20
171.3382066086411
 30
0.0
  0
VERTEX
  5
351
330
34F
100
AcDbEntity
  8
VRSTVA_1
 62
     7
100
AcDbVertex
100
AcDb2dVertex
 10
124.0482421564879
 20
174.838423621655
 30
0.0
  0
SEQEND
  5
352
330
34F
100
AcDbEntity
  8
VRSTVA_1
  0
POLYLINE
  5
353
330
1F
100
AcDbEntity
  8
VRSTVA_1
 62
     7
100
AcDb2dPolyline
 66
     1
 10
0.0
 20
0.0
 30
0.0
  0
VERTEX
  5
354
330
353
100
AcDbEntity
  8
VRSTVA_1
 62
     7
100
AcDbVertex
100
AcDb2dVertex
 10
124.0992295696696
 20
171.3382066086411
 30
0.0
  0
VERTEX
  5
355
330
353
100
AcDbEntity
  8
VRSTVA_1
 62
     7
100
AcDbVertex
100
AcDb2dVertex
 10
124.0992295696696
 20
174.6485988604177
 30
0.0
  0
SEQEND
  5
356
330
353
100
AcDbEntity
  8
VRSTVA_1
  0
POLYLINE
  5
357
330
1F
100
AcDbEntity
  8
VRSTVA_1
 62
     7
100
AcDb2dPolyline
 66
     1
 10
0.0
 20
0.0
 30
0.0
  0
VERTEX
  5
358
330
357
100
AcDbEntity
  8
VRSTVA_1
 62
     7
100
AcDbVertex
100
AcDb2dVertex
 10
124.1498724733028
 20
171.3382066086411
 30
0.0
  0
VERTEX
  5
359
330
357
100
AcDbEntity
  8
VRSTVA_1
 62
     7
100
AcDbVertex
100
AcDb2dVertex
 10
124.1498724733028
 20
174.459118608729
 30
0.0
  0
SEQEND
  5
35A
330
357
100
AcDbEntity
  8
VRSTVA_1
  0
POLYLINE
  5
35B
330
1F
100
AcDbEntity
  8
VRSTVA_1
 62
     7
100
AcDb2dPolyline
 66
     1
 10
0.0
 20
0.0
 30
0.0
  0
VERTEX
  5
35C
330
35B
100
AcDbEntity
  8
VRSTVA_1
 62
     7
100
AcDbVertex
100
AcDb2dVertex
 10
124.2008598864845
 20
171.3382066086411
 30
0.0
  0
VERTEX
  5
35D
330
35B
100
AcDbEntity
  8
VRSTVA_1
 62
     7
100
AcDbVertex
100
AcDb2dVertex
 10
124.2008598864845
 20
174.269466102266
 30
0.0
  0
SEQEND
  5
35E
330
35B
100
AcDbEntity
  8
VRSTVA_1
  0
POLYLINE
  5
35F
330
1F
100
AcDbEntity
  8
VRSTVA_1
 62
     7
100
AcDb2dPolyline
 66
     1
 10
0.0
 20
0.0
 30
0.0
  0
VERTEX
  5
360
330
35F
100
AcDbEntity
  8
VRSTVA_1
 62
     7
100
AcDbVertex
100
AcDb2dVertex
 10
124.2515027901177
 20
171.3382066086411
 30
0.0
  0
VERTEX
  5
361
330
35F
100
AcDbEntity
  8
VRSTVA_1
 62
     7
100
AcDbVertex
100
AcDb2dVertex
 10
124.2515027901177
 20
174.0799858505772
 30
0.0
  0
SEQEND
  5
362
330
35F
100
AcDbEntity
  8
VRSTVA_1
  0
POLYLINE
  5
363
330
1F
100
AcDbEntity
  8
VRSTVA_1
 62
     7
100
AcDb2dPolyline
 66
     1
 10
0.0
 20
0.0
 30
0.0
  0
VERTEX
  5
364
330
363
100
AcDbEntity
  8
VRSTVA_1
 62
     7
100
AcDbVertex
100
AcDb2dVertex
 10
124.3021456937509
 20
171.3382066086411
 30
0.0
  0
VERTEX
  5
365
330
363
100
AcDbEntity
  8
VRSTVA_1
 62
     7
100
AcDbVertex
100
AcDb2dVertex
 10
124.3021456937509
 20
173.8905055988885
 30
0.0
  0
SEQEND
  5
366
330
363
100
AcDbEntity
  8
VRSTVA_1
  0
POLYLINE
  5
367
330
1F
100
AcDbEntity
  8
VRSTVA_1
 62
     7
100
AcDb2dPolyline
 66
     1
 10
0.0
 20
0.0
 30
0.0
  0
VERTEX
  5
368
330
367
100
AcDbEntity
  8
VRSTVA_1
 62
     7
100
AcDbVertex
100
AcDb2dVertex
 10
124.3531331069326
 20
171.3382066086411
 30
0.0
  0
VERTEX
  5
369
330
367
100
AcDbEntity
  8
VRSTVA_1
 62
     7
100
AcDbVertex
100
AcDb2dVertex
 10
124.3531331069326
 20
173.7006808376512
 30
0.0
  0
SEQEND
  5
36A
330
367
100
AcDbEntity
  8
VRSTVA_1
  0
POLYLINE
  5
36B
330
1F
100
AcDbEntity
  8
VRSTVA_1
 62
     7
100
AcDb2dPolyline
 66
     1
 10
0.0
 20
0.0
 30
0.0
  0
VERTEX
  5
36C
330
36B
100
AcDbEntity
  8
VRSTVA_1
 62
     7
100
AcDbVertex
100
AcDb2dVertex
 10
124.4037760105657
 20
171.3382066086411
 30
0.0
  0
VERTEX
  5
36D
330
36B
100
AcDbEntity
  8
VRSTVA_1
 62
     7
100
AcDbVertex
100
AcDb2dVertex
 10
124.4037760105657
 20
173.5112005859625
 30
0.0
  0
SEQEND
  5
36E
330
36B
100
AcDbEntity
  8
VRSTVA_1
  0
POLYLINE
  5
36F
330
1F
100
AcDbEntity
  8
VRSTVA_1
 62
     7
100
AcDb2dPolyline
 66
     1
 10
0.0
 20
0.0
 30
0.0
  0
VERTEX
  5
370
330
36F
100
AcDbEntity
  8
VRSTVA_1
 62
     7
100
AcDbVertex
100
AcDb2dVertex
 10
124.4547634237474
 20
171.3382066086411
 30
0.0
  0
VERTEX
  5
371
330
36F
100
AcDbEntity
  8
VRSTVA_1
 62
     7
100
AcDbVertex
100
AcDb2dVertex
 10
124.4547634237474
 20
173.3215480794995
 30
0.0
  0
SEQEND
  5
372
330
36F
100
AcDbEntity
  8
VRSTVA_1
  0
POLYLINE
  5
373
330
1F
100
AcDbEntity
  8
VRSTVA_1
 62
     7
100
AcDb2dPolyline
 66
     1
 10
0.0
 20
0.0
 30
0.0
  0
VERTEX
  5
374
330
373
100
AcDbEntity
  8
VRSTVA_1
 62
     7
100
AcDbVertex
100
AcDb2dVertex
 10
124.5054063273806
 20
171.3382066086411
 30
0.0
  0
VERTEX
  5
375
330
373
100
AcDbEntity
  8
VRSTVA_1
 62
     7
100
AcDbVertex
100
AcDb2dVertex
 10
124.5054063273806
 20
173.1320678278107
 30
0.0
  0
SEQEND
  5
376
330
373
100
AcDbEntity
  8
VRSTVA_1
  0
POLYLINE
  5
377
330
1F
100
AcDbEntity
  8
VRSTVA_1
 62
     7
100
AcDb2dPolyline
 66
     1
 10
0.0
 20
0.0
 30
0.0
  0
VERTEX
  5
378
330
377
100
AcDbEntity
  8
VRSTVA_1
 62
     7
100
AcDbVertex
100
AcDb2dVertex
 10
124.5563937405623
 20
171.3382066086411
 30
0.0
  0
VERTEX
  5
379
330
377
100
AcDbEntity
  8
VRSTVA_1
 62
     7
100
AcDbVertex
100
AcDb2dVertex
 10
124.5563937405623
 20
172.942587576122
 30
0.0
  0
SEQEND
  5
37A
330
377
100
AcDbEntity
  8
VRSTVA_1
  0
POLYLINE
  5
37B
330
1F
100
AcDbEntity
  8
VRSTVA_1
 62
     7
100
AcDb2dPolyline
 66
     1
 10
0.0
 20
0.0
 30
0.0
  0
VERTEX
  5
37C
330
37B
100
AcDbEntity
  8
VRSTVA_1
 62
     7
100
AcDbVertex
100
AcDb2dVertex
 10
124.6070366441955
 20
171.3382066086411
 30
0.0
  0
VERTEX
  5
37D
330
37B
100
AcDbEntity
  8
VRSTVA_1
 62
     7
100
AcDbVertex
100
AcDb2dVertex
 10
124.6070366441955
 20
172.7527628148847
 30
0.0
  0
SEQEND
  5
37E
330
37B
100
AcDbEntity
  8
VRSTVA_1
  0
POLYLINE
  5
37F
330
1F
100
AcDbEntity
  8
VRSTVA_1
 62
     7
100
AcDb2dPolyline
 66
     1
 10
0.0
 20
0.0
 30
0.0
  0
VERTEX
  5
380
330
37F
100
AcDbEntity
  8
VRSTVA_1
 62
     7
100
AcDbVertex
100
AcDb2dVertex
 10
124.6580240573772
 20
171.3382066086411
 30
0.0
  0
VERTEX
  5
381
330
37F
100
AcDbEntity
  8
VRSTVA_1
 62
     7
100
AcDbVertex
100
AcDb2dVertex
 10
124.6580240573772
 20
172.5634548179703
 30
0.0
  0
SEQEND
  5
382
330
37F
100
AcDbEntity
  8
VRSTVA_1
  0
POLYLINE
  5
383
330
1F
100
AcDbEntity
  8
VRSTVA_1
 62
     7
100
AcDb2dPolyline
 66
     1
 10
0.0
 20
0.0
 30
0.0
  0
VERTEX
  5
384
330
383
100
AcDbEntity
  8
VRSTVA_1
 62
     7
100
AcDbVertex
100
AcDb2dVertex
 10
124.7086669610103
 20
171.3382066086411
 30
0.0
  0
VERTEX
  5
385
330
383
100
AcDbEntity
  8
VRSTVA_1
 62
     7
100
AcDbVertex
100
AcDb2dVertex
 10
124.7086669610103
 20
172.373630056733
 30
0.0
  0
SEQEND
  5
386
330
383
100
AcDbEntity
  8
VRSTVA_1
  0
POLYLINE
  5
387
330
1F
100
AcDbEntity
  8
VRSTVA_1
 62
     7
100
AcDb2dPolyline
 66
     1
 10
0.0
 20
0.0
 30
0.0
  0
VERTEX
  5
388
330
387
100
AcDbEntity
  8
VRSTVA_1
 62
     7
100
AcDbVertex
100
AcDb2dVertex
 10
124.759654374192
 20
171.3382066086411
 30
0.0
  0
VERTEX
  5
389
330
387
100
AcDbEntity
  8
VRSTVA_1
 62
     7
100
AcDbVertex
100
AcDb2dVertex
 10
124.759654374192
 20
172.1841498050443
 30
0.0
  0
SEQEND
  5
38A
330
387
100
AcDbEntity
  8
VRSTVA_1
  0
POLYLINE
  5
38B
330
1F
100
AcDbEntity
  8
VRSTVA_1
 62
     7
100
AcDb2dPolyline
 66
     1
 10
0.0
 20
0.0
 30
0.0
  0
VERTEX
  5
38C
330
38B
100
AcDbEntity
  8
VRSTVA_1
 62
     7
100
AcDbVertex
100
AcDb2dVertex
 10
124.8102972778252
 20
171.3382066086411
 30
0.0
  0
VERTEX
  5
38D
330
38B
100
AcDbEntity
  8
VRSTVA_1
 62
     7
100
AcDbVertex
100
AcDb2dVertex
 10
124.8102972778252
 20
171.994325043807
 30
0.0
  0
SEQEND
  5
38E
330
38B
100
AcDbEntity
  8
VRSTVA_1
  0
POLYLINE
  5
38F
330
1F
100
AcDbEntity
  8
VRSTVA_1
 62
     7
100
AcDb2dPolyline
 66
     1
 10
0.0
 20
0.0
 30
0.0
  0
VERTEX
  5
390
330
38F
100
AcDbEntity
  8
VRSTVA_1
 62
     7
100
AcDbVertex
100
AcDb2dVertex
 10
124.8612846910069
 20
171.3382066086411
 30
0.0
  0
VERTEX
  5
391
330
38F
100
AcDbEntity
  8
VRSTVA_1
 62
     7
100
AcDbVertex
100
AcDb2dVertex
 10
124.8612846910069
 20
171.8048447921182
 30
0.0
  0
SEQEND
  5
392
330
38F
100
AcDbEntity
  8
VRSTVA_1
  0
POLYLINE
  5
393
330
1F
100
AcDbEntity
  8
VRSTVA_1
 62
     7
100
AcDb2dPolyline
 66
     1
 10
0.0
 20
0.0
 30
0.0
  0
VERTEX
  5
394
330
393
100
AcDbEntity
  8
VRSTVA_1
 62
     7
100
AcDbVertex
100
AcDb2dVertex
 10
124.9119275946401
 20
171.3382066086411
 30
0.0
  0
VERTEX
  5
395
330
393
100
AcDbEntity
  8
VRSTVA_1
 62
     7
100
AcDbVertex
100
AcDb2dVertex
 10
124.9119275946401
 20
171.6153645404295
 30
0.0
  0
SEQEND
  5
396
330
393
100
AcDbEntity
  8
VRSTVA_1
  0
POLYLINE
  5
397
330
1F
100
AcDbEntity
  8
VRSTVA_1
 62
     7
100
AcDb2dPolyline
 66
     1
 10
0.0
 20
0.0
 30
0.0
  0
VERTEX
  5
398
330
397
100
AcDbEntity
  8
VRSTVA_1
 62
     7
100
AcDbVertex
100
AcDb2dVertex
 10
124.9625704982733
 20
171.3382066086411
 30
0.0
  0
VERTEX
  5
399
330
397
100
AcDbEntity
  8
VRSTVA_1
 62
     7
100
AcDbVertex
100
AcDb2dVertex
 10
124.9625704982733
 20
171.4257120339665
 30
0.0
  0
SEQEND
  5
39A
330
397
100
AcDbEntity
  8
VRSTVA_1
  0
POLYLINE
  5
39B
330
1F
100
AcDbEntity
  8
VRSTVA_1
 62
     7
100
AcDb2dPolyline
 66
     1
 10
0.0
 20
0.0
 30
0.0
  0
VERTEX
  5
39C
330
39B
100
AcDbEntity
  8
VRSTVA_1
 62
     7
100
AcDbVertex
100
AcDb2dVertex
 10
124.9625704982733
 20
171.3382066086411
 30
0.0
  0
VERTEX
  5
39D
330
39B
100
AcDbEntity
  8
VRSTVA_1
 62
     7
100
AcDbVertex
100
AcDb2dVertex
 10
124.9625704982733
 20
171.4257120339665
 30
0.0
  0
SEQEND
  5
39E
330
39B
100
AcDbEntity
  8
VRSTVA_1
  0
POLYLINE
  5
39F
330
1F
100
AcDbEntity
  8
VRSTVA_1
 62
     7
100
AcDb2dPolyline
 66
     1
 10
0.0
 20
0.0
 30
0.0
  0
VERTEX
  5
3A0
330
39F
100
AcDbEntity
  8
VRSTVA_1
 62
     7
100
AcDbVertex
100
AcDb2dVertex
 10
124.0482421564879
 20
171.3382066086411
 30
0.0
  0
VERTEX
  5
3A1
330
39F
100
AcDbEntity
  8
VRSTVA_1
 62
     7
100
AcDbVertex
100
AcDb2dVertex
 10
124.0482421564879
 20
174.838423621655
 30
0.0
  0
SEQEND
  5
3A2
330
39F
100
AcDbEntity
  8
VRSTVA_1
  0
POLYLINE
  5
3A3
330
1F
100
AcDbEntity
  8
VRSTVA_1
 62
     7
100
AcDb2dPolyline
 66
     1
 10
0.0
 20
0.0
 30
0.0
  0
VERTEX
  5
3A4
330
3A3
100
AcDbEntity
  8
VRSTVA_1
 62
     7
100
AcDbVertex
100
AcDb2dVertex
 10
123.9975992528548
 20
171.3382066086411
 30
0.0
  0
VERTEX
  5
3A5
330
3A3
100
AcDbEntity
  8
VRSTVA_1
 62
     7
100
AcDbVertex
100
AcDb2dVertex
 10
123.9975992528548
 20
174.6485988604177
 30
0.0
  0
SEQEND
  5
3A6
330
3A3
100
AcDbEntity
  8
VRSTVA_1
  0
POLYLINE
  5
3A7
330
1F
100
AcDbEntity
  8
VRSTVA_1
 62
     7
100
AcDb2dPolyline
 66
     1
 10
0.0
 20
0.0
 30
0.0
  0
VERTEX
  5
3A8
330
3A7
100
AcDbEntity
  8
VRSTVA_1
 62
     7
100
AcDbVertex
100
AcDb2dVertex
 10
123.9466118396731
 20
171.3382066086411
 30
0.0
  0
VERTEX
  5
3A9
330
3A7
100
AcDbEntity
  8
VRSTVA_1
 62
     7
100
AcDbVertex
100
AcDb2dVertex
 10
123.9466118396731
 20
174.459118608729
 30
0.0
  0
SEQEND
  5
3AA
330
3A7
100
AcDbEntity
  8
VRSTVA_1
  0
POLYLINE
  5
3AB
330
1F
100
AcDbEntity
  8
VRSTVA_1
 62
     7
100
AcDb2dPolyline
 66
     1
 10
0.0
 20
0.0
 30
0.0
  0
VERTEX
  5
3AC
330
3AB
100
AcDbEntity
  8
VRSTVA_1
 62
     7
100
AcDbVertex
100
AcDb2dVertex
 10
123.8959689360399
 20
171.3382066086411
 30
0.0
  0
VERTEX
  5
3AD
330
3AB
100
AcDbEntity
  8
VRSTVA_1
 62
     7
100
AcDbVertex
100
AcDb2dVertex
 10
123.8959689360399
 20
174.269466102266
 30
0.0
  0
SEQEND
  5
3AE
330
3AB
100
AcDbEntity
  8
VRSTVA_1
  0
POLYLINE
  5
3AF
330
1F
100
AcDbEntity
  8
VRSTVA_1
 62
     7
100
AcDb2dPolyline
 66
     1
 10
0.0
 20
0.0
 30
0.0
  0
VERTEX
  5
3B0
330
3AF
100
AcDbEntity
  8
VRSTVA_1
 62
     7
100
AcDbVertex
100
AcDb2dVertex
 10
123.8449815228582
 20
171.3382066086411
 30
0.0
  0
VERTEX
  5
3B1
330
3AF
100
AcDbEntity
  8
VRSTVA_1
 62
     7
100
AcDbVertex
100
AcDb2dVertex
 10
123.8449815228582
 20
174.0799858505772
 30
0.0
  0
SEQEND
  5
3B2
330
3AF
100
AcDbEntity
  8
VRSTVA_1
  0
POLYLINE
  5
3B3
330
1F
100
AcDbEntity
  8
VRSTVA_1
 62
     7
100
AcDb2dPolyline
 66
     1
 10
0.0
 20
0.0
 30
0.0
  0
VERTEX
  5
3B4
330
3B3
100
AcDbEntity
  8
VRSTVA_1
 62
     7
100
AcDbVertex
100
AcDb2dVertex
 10
123.794338619225
 20
171.3382066086411
 30
0.0
  0
VERTEX
  5
3B5
330
3B3
100
AcDbEntity
  8
VRSTVA_1
 62
     7
100
AcDbVertex
100
AcDb2dVertex
 10
123.794338619225
 20
173.8905055988885
 30
0.0
  0
SEQEND
  5
3B6
330
3B3
100
AcDbEntity
  8
VRSTVA_1
  0
POLYLINE
  5
3B7
330
1F
100
AcDbEntity
  8
VRSTVA_1
 62
     7
100
AcDb2dPolyline
 66
     1
 10
0.0
 20
0.0
 30
0.0
  0
VERTEX
  5
3B8
330
3B7
100
AcDbEntity
  8
VRSTVA_1
 62
     7
100
AcDbVertex
100
AcDb2dVertex
 10
123.7433512060433
 20
171.3382066086411
 30
0.0
  0
VERTEX
  5
3B9
330
3B7
100
AcDbEntity
  8
VRSTVA_1
 62
     7
100
AcDbVertex
100
AcDb2dVertex
 10
123.7433512060433
 20
173.7006808376512
 30
0.0
  0
SEQEND
  5
3BA
330
3B7
100
AcDbEntity
  8
VRSTVA_1
  0
POLYLINE
  5
3BB
330
1F
100
AcDbEntity
  8
VRSTVA_1
 62
     7
100
AcDb2dPolyline
 66
     1
 10
0.0
 20
0.0
 30
0.0
  0
VERTEX
  5
3BC
330
3BB
100
AcDbEntity
  8
VRSTVA_1
 62
     7
100
AcDbVertex
100
AcDb2dVertex
 10
123.6927083024102
 20
171.3382066086411
 30
0.0
  0
VERTEX
  5
3BD
330
3BB
100
AcDbEntity
  8
VRSTVA_1
 62
     7
100
AcDbVertex
100
AcDb2dVertex
 10
123.6927083024102
 20
173.5112005859625
 30
0.0
  0
SEQEND
  5
3BE
330
3BB
100
AcDbEntity
  8
VRSTVA_1
  0
POLYLINE
  5
3BF
330
1F
100
AcDbEntity
  8
VRSTVA_1
 62
     7
100
AcDb2dPolyline
 66
     1
 10
0.0
 20
0.0
 30
0.0
  0
VERTEX
  5
3C0
330
3BF
100
AcDbEntity
  8
VRSTVA_1
 62
     7
100
AcDbVertex
100
AcDb2dVertex
 10
123.642065398777
 20
171.3382066086411
 30
0.0
  0
VERTEX
  5
3C1
330
3BF
100
AcDbEntity
  8
VRSTVA_1
 62
     7
100
AcDbVertex
100
AcDb2dVertex
 10
123.642065398777
 20
173.3215480794995
 30
0.0
  0
SEQEND
  5
3C2
330
3BF
100
AcDbEntity
  8
VRSTVA_1
  0
POLYLINE
  5
3C3
330
1F
100
AcDbEntity
  8
VRSTVA_1
 62
     7
100
AcDb2dPolyline
 66
     1
 10
0.0
 20
0.0
 30
0.0
  0
VERTEX
  5
3C4
330
3C3
100
AcDbEntity
  8
VRSTVA_1
 62
     7
100
AcDbVertex
100
AcDb2dVertex
 10
123.5910779855953
 20
171.3382066086411
 30
0.0
  0
VERTEX
  5
3C5
330
3C3
100
AcDbEntity
  8
VRSTVA_1
 62
     7
100
AcDbVertex
100
AcDb2dVertex
 10
123.5910779855953
 20
173.1320678278107
 30
0.0
  0
SEQEND
  5
3C6
330
3C3
100
AcDbEntity
  8
VRSTVA_1
  0
POLYLINE
  5
3C7
330
1F
100
AcDbEntity
  8
VRSTVA_1
 62
     7
100
AcDb2dPolyline
 66
     1
 10
0.0
 20
0.0
 30
0.0
  0
VERTEX
  5
3C8
330
3C7
100
AcDbEntity
  8
VRSTVA_1
 62
     7
100
AcDbVertex
100
AcDb2dVertex
 10
123.5404350819621
 20
171.3382066086411
 30
0.0
  0
VERTEX
  5
3C9
330
3C7
100
AcDbEntity
  8
VRSTVA_1
 62
     7
100
AcDbVertex
100
AcDb2dVertex
 10
123.5404350819621
 20
172.942587576122
 30
0.0
  0
SEQEND
  5
3CA
330
3C7
100
AcDbEntity
  8
VRSTVA_1
  0
POLYLINE
  5
3CB
330
1F
100
AcDbEntity
  8
VRSTVA_1
 62
     7
100
AcDb2dPolyline
 66
     1
 10
0.0
 20
0.0
 30
0.0
  0
VERTEX
  5
3CC
330
3CB
100
AcDbEntity
  8
VRSTVA_1
 62
     7
100
AcDbVertex
100
AcDb2dVertex
 10
123.4894476687804
 20
171.3382066086411
 30
0.0
  0
VERTEX
  5
3CD
330
3CB
100
AcDbEntity
  8
VRSTVA_1
 62
     7
100
AcDbVertex
100
AcDb2dVertex
 10
123.4894476687804
 20
172.7527628148847
 30
0.0
  0
SEQEND
  5
3CE
330
3CB
100
AcDbEntity
  8
VRSTVA_1
  0
POLYLINE
  5
3CF
330
1F
100
AcDbEntity
  8
VRSTVA_1
 62
     7
100
AcDb2dPolyline
 66
     1
 10
0.0
 20
0.0
 30
0.0
  0
VERTEX
  5
3D0
330
3CF
100
AcDbEntity
  8
VRSTVA_1
 62
     7
100
AcDbVertex
100
AcDb2dVertex
 10
123.4388047651473
 20
171.3382066086411
 30
0.0
  0
VERTEX
  5
3D1
330
3CF
100
AcDbEntity
  8
VRSTVA_1
 62
     7
100
AcDbVertex
100
AcDb2dVertex
 10
123.4388047651473
 20
172.5634548179703
 30
0.0
  0
SEQEND
  5
3D2
330
3CF
100
AcDbEntity
  8
VRSTVA_1
  0
POLYLINE
  5
3D3
330
1F
100
AcDbEntity
  8
VRSTVA_1
 62
     7
100
AcDb2dPolyline
 66
     1
 10
0.0
 20
0.0
 30
0.0
  0
VERTEX
  5
3D4
330
3D3
100
AcDbEntity
  8
VRSTVA_1
 62
     7
100
AcDbVertex
100
AcDb2dVertex
 10
123.3878173519656
 20
171.3382066086411
 30
0.0
  0
VERTEX
  5
3D5
330
3D3
100
AcDbEntity
  8
VRSTVA_1
 62
     7
100
AcDbVertex
100
AcDb2dVertex
 10
123.3878173519656
 20
172.373630056733
 30
0.0
  0
SEQEND
  5
3D6
330
3D3
100
AcDbEntity
  8
VRSTVA_1
  0
POLYLINE
  5
3D7
330
1F
100
AcDbEntity
  8
VRSTVA_1
 62
     7
100
AcDb2dPolyline
 66
     1
 10
0.0
 20
0.0
 30
0.0
  0
VERTEX
  5
3D8
330
3D7
100
AcDbEntity
  8
VRSTVA_1
 62
     7
100
AcDbVertex
100
AcDb2dVertex
 10
123.3371744483324
 20
171.3382066086411
 30
0.0
  0
VERTEX
  5
3D9
330
3D7
100
AcDbEntity
  8
VRSTVA_1
 62
     7
100
AcDbVertex
100
AcDb2dVertex
 10
123.3371744483324
 20
172.1841498050443
 30
0.0
  0
SEQEND
  5
3DA
330
3D7
100
AcDbEntity
  8
VRSTVA_1
  0
POLYLINE
  5
3DB
330
1F
100
AcDbEntity
  8
VRSTVA_1
 62
     7
100
AcDb2dPolyline
 66
     1
 10
0.0
 20
0.0
 30
0.0
  0
VERTEX
  5
3DC
330
3DB
100
AcDbEntity
  8
VRSTVA_1
 62
     7
100
AcDbVertex
100
AcDb2dVertex
 10
123.2861870351507
 20
171.3382066086411
 30
0.0
  0
VERTEX
  5
3DD
330
3DB
100
AcDbEntity
  8
VRSTVA_1
 62
     7
100
AcDbVertex
100
AcDb2dVertex
 10
123.2861870351507
 20
171.994325043807
 30
0.0
  0
SEQEND
  5
3DE
330
3DB
100
AcDbEntity
  8
VRSTVA_1
  0
POLYLINE
  5
3DF
330
1F
100
AcDbEntity
  8
VRSTVA_1
 62
     7
100
AcDb2dPolyline
 66
     1
 10
0.0
 20
0.0
 30
0.0
  0
VERTEX
  5
3E0
330
3DF
100
AcDbEntity
  8
VRSTVA_1
 62
     7
100
AcDbVertex
100
AcDb2dVertex
 10
123.2355441315175
 20
171.3382066086411
 30
0.0
  0
VERTEX
  5
3E1
330
3DF
100
AcDbEntity
  8
VRSTVA_1
 62
     7
100
AcDbVertex
100
AcDb2dVertex
 10
123.2355441315175
 20
171.8048447921182
 30
0.0
  0
SEQEND
  5
3E2
330
3DF
100
AcDbEntity
  8
VRSTVA_1
  0
POLYLINE
  5
3E3
330
1F
100
AcDbEntity
  8
VRSTVA_1
 62
     7
100
AcDb2dPolyline
 66
     1
 10
0.0
 20
0.0
 30
0.0
  0
VERTEX
  5
3E4
330
3E3
100
AcDbEntity
  8
VRSTVA_1
 62
     7
100
AcDbVertex
100
AcDb2dVertex
 10
123.1845567183358
 20
171.3382066086411
 30
0.0
  0
VERTEX
  5
3E5
330
3E3
100
AcDbEntity
  8
VRSTVA_1
 62
     7
100
AcDbVertex
100
AcDb2dVertex
 10
123.1845567183358
 20
171.6153645404295
 30
0.0
  0
SEQEND
  5
3E6
330
3E3
100
AcDbEntity
  8
VRSTVA_1
  0
POLYLINE
  5
3E7
330
1F
100
AcDbEntity
  8
VRSTVA_1
 62
     7
100
AcDb2dPolyline
 66
     1
 10
0.0
 20
0.0
 30
0.0
  0
VERTEX
  5
3E8
330
3E7
100
AcDbEntity
  8
VRSTVA_1
 62
     7
100
AcDbVertex
100
AcDb2dVertex
 10
123.1339138147026
 20
171.3382066086411
 30
0.0
  0
VERTEX
  5
3E9
330
3E7
100
AcDbEntity
  8
VRSTVA_1
 62
     7
100
AcDbVertex
100
AcDb2dVertex
 10
123.1339138147026
 20
171.4257120339665
 30
0.0
  0
SEQEND
  5
3EA
330
3E7
100
AcDbEntity
  8
VRSTVA_1
  0
POLYLINE
  5
3EB
330
1F
100
AcDbEntity
  8
VRSTVA_1
 62
     7
100
AcDb2dPolyline
 66
     1
 10
0.0
 20
0.0
 30
0.0
  0
VERTEX
  5
3EC
330
3EB
100
AcDbEntity
  8
VRSTVA_1
 62
     7
100
AcDbVertex
100
AcDb2dVertex
 10
123.1339138147026
 20
171.3382066086411
 30
0.0
  0
VERTEX
  5
3ED
330
3EB
100
AcDbEntity
  8
VRSTVA_1
 62
     7
100
AcDbVertex
100
AcDb2dVertex
 10
123.1339138147026
 20
171.4257120339665
 30
0.0
  0
SEQEND
  5
3EE
330
3EB
100
AcDbEntity
  8
VRSTVA_1
  0
POLYLINE
  5
3EF
330
1F
100
AcDbEntity
  8
VRSTVA_1
 62
     7
100
AcDb2dPolyline
 66
     1
 10
0.0
 20
0.0
 30
0.0
  0
VERTEX
  5
3F0
330
3EF
100
AcDbEntity
  8
VRSTVA_1
 62
     7
100
AcDbVertex
100
AcDb2dVertex
 10
124.9863416571215
 20
171.3382066086411
 30
0.0
  0
VERTEX
  5
3F1
330
3EF
100
AcDbEntity
  8
VRSTVA_1
 62
     7
100
AcDbVertex
100
AcDb2dVertex
 10
124.0482421564879
 20
174.838423621655
 30
0.0
  0
SEQEND
  5
3F2
330
3EF
100
AcDbEntity
  8
VRSTVA_1
  0
POLYLINE
  5
3F3
330
1F
100
AcDbEntity
  8
VRSTVA_1
 62
     7
100
AcDb2dPolyline
 66
     1
 10
0.0
 20
0.0
 30
0.0
  0
VERTEX
  5
3F4
330
3F3
100
AcDbEntity
  8
VRSTVA_1
 62
     7
100
AcDbVertex
100
AcDb2dVertex
 10
123.1104871654029
 20
171.3382066086411
 30
0.0
  0
VERTEX
  5
3F5
330
3F3
100
AcDbEntity
  8
VRSTVA_1
 62
     7
100
AcDbVertex
100
AcDb2dVertex
 10
124.9863416571215
 20
171.3382066086411
 30
0.0
  0
SEQEND
  5
3F6
330
3F3
100
AcDbEntity
  8
VRSTVA_1
  0
POLYLINE
  5
3F7
330
1F
100
AcDbEntity
  8
VRSTVA_1
 62
     7
100
AcDb2dPolyline
 66
     1
 10
0.0
 20
0.0
 30
0.0
  0
VERTEX
  5
3F8
330
3F7
100
AcDbEntity
  8
VRSTVA_1
 62
     7
100
AcDbVertex
100
AcDb2dVertex
 10
124.0482421564879
 20
174.838423621655
 30
0.0
  0
VERTEX
  5
3F9
330
3F7
100
AcDbEntity
  8
VRSTVA_1
 62
     7
100
AcDbVertex
100
AcDb2dVertex
 10
123.1104871654029
 20
171.3382066086411
 30
0.0
  0
SEQEND
  5
3FA
330
3F7
100
AcDbEntity
  8
VRSTVA_1
  0
POLYLINE
  5
3FB
330
1F
100
AcDbEntity
  8
VRSTVA_1
 62
     7
100
AcDb2dPolyline
 66
     1
 10
0.0
 20
0.0
 30
0.0
  0
VERTEX
  5
3FC
330
3FB
100
AcDbEntity
  8
VRSTVA_1
 62
     7
100
AcDbVertex
100
AcDb2dVertex
 10
124.0482421564879
 20
174.838423621655
 30
0.0
  0
VERTEX
  5
3FD
330
3FB
100
AcDbEntity
  8
VRSTVA_1
 62
     7
100
AcDbVertex
100
AcDb2dVertex
 10
124.0482421564879
 20
132.3381754226446
 30
0.0
  0
SEQEND
  5
3FE
330
3FB
100
AcDbEntity
  8
VRSTVA_1
  0
POLYLINE
  5
3FF
330
1F
100
AcDbEntity
  8
VRSTVA_1
 62
     7
100
AcDb2dPolyline
 66
     1
 10
0.0
 20
0.0
 30
0.0
  0
VERTEX
  5
400
330
3FF
100
AcDbEntity
  8
VRSTVA_1
 62
     7
100
AcDbVertex
100
AcDb2dVertex
 10
111.4057752542666
 20
132.3381754226446
 30
0.0
  0
VERTEX
  5
401
330
3FF
100
AcDbEntity
  8
VRSTVA_1
 62
     7
100
AcDbVertex
100
AcDb2dVertex
 10
125.048353375856
 20
132.3381754226446
 30
0.0
  0
SEQEND
  5
402
330
3FF
100
AcDbEntity
  8
VRSTVA_1
  0
POLYLINE
  5
403
330
1F
100
AcDbEntity
  8
VRSTVA_1
 62
     7
100
AcDb2dPolyline
 66
     1
 10
0.0
 20
0.0
 30
0.0
  0
VERTEX
  5
404
330
403
100
AcDbEntity
  8
VRSTVA_1
 62
     7
100
AcDbVertex
100
AcDb2dVertex
 10
113.4056531834541
 20
174.838423621655
 30
0.0
  0
VERTEX
  5
405
330
403
100
AcDbEntity
  8
VRSTVA_1
 62
     7
100
AcDbVertex
100
AcDb2dVertex
 10
125.048353375856
 20
174.838423621655
 30
0.0
  0
SEQEND
  5
406
330
403
100
AcDbEntity
  8
VRSTVA_1
  0
ENDSEC
  0
SECTION
  2
OBJECTS
  0
DICTIONARY
  5
C
330
0
100
AcDbDictionary
  3
ACAD_GROUP
350
D
  3
ACAD_LAYOUT
350
1A
  3
ACAD_MLINESTYLE
350
17
  3
ACAD_PLOTSETTINGS
350
19
  3
ACAD_TABLESTYLE
350
427
  3
ACAD_VISUALSTYLE
350
2A
  3
ACDBHEADERROUNDTRIPXREC
350
407
  0
DICTIONARY
  5
D
102
{ACAD_REACTORS
330
C
102
}
330
C
100
AcDbDictionary
  0
DICTIONARY
  5
1A
102
{ACAD_REACTORS
330
C
102
}
330
C
100
AcDbDictionary
  0
DICTIONARY
  5
17
102
{ACAD_REACTORS
330
C
102
}
330
C
100
AcDbDictionary
  3
STANDARD
350
18
  0
DICTIONARY
  5
19
102
{ACAD_REACTORS
330
C
102
}
330
C
100
AcDbDictionary
  0
DICTIONARY
  5
427
102
{ACAD_REACTORS
330
C
102
}
330
C
100
AcDbDictionary
  0
DICTIONARY
  5
2A
102
{ACAD_REACTORS
330
C
102
}
330
C
100
AcDbDictionary
  3
2DWIREFRAME
350
2F
  3
3D_HIDDEN
350
31
  3
3DWIREFRAME
350
30
  3
BASIC
350
32
  3
BRIGHTEN
350
36
  3
COLORCHANGE
350
3A
  3
CONCEPTUAL
350
34
  3
DIM
350
35
  3
FACEPATTERN
350
39
  3
FLAT
350
2B
  3
FLATWITHEDGES
350
2C
  3
GOURAUD
350
2D
  3
GOURAUDWITHEDGES
350
2E
  3
LINEPATTERN
350
38
  3
REALISTIC
350
33
  3
THICKEN
350
37
  0
DICTIONARY
  5
407
102
{ACAD_REACTORS
330
C
102
}
330
C
100
AcDbDictionary
  3
CEPSNTYPE
350
410
  3
DIMSTYLEDATA
350
426
  3
FINGERPRINTGUID
350
411
  3
HYPERLINKBASE
350
40A
  3
INSUNITS
350
40F
  3
LAYOUTDICT
350
40C
  3
LWETCUNION
350
40E
  3
PLOTSETDICT
350
40D
  3
PSVPSCALE
350
413
  3
PUCSBASE
350
416
  3
PUCSORGBACK
350
41C
  3
PUCSORGBOTTOM
350
418
  3
PUCSORGFRONT
350
41B
  3
PUCSORGLEFT
350
419
  3
PUCSORGRIGHT
350
41A
  3
PUCSORGTOP
350
417
  3
PUCSORTHOREF
350
414
  3
PUCSORTHOVIEW
350
415
  3
STYLESHEET
350
40B
  3
TSTACKALIGN
350
408
  3
TSTACKSIZE
350
409
  3
UCSBASE
350
41F
  3
UCSORGBACK
350
425
  3
UCSORGBOTTOM
350
421
  3
UCSORGFRONT
350
424
  3
UCSORGLEFT
350
422
  3
UCSORGRIGHT
350
423
  3
UCSORGTOP
350
420
  3
UCSORTHOREF
350
41D
  3
UCSORTHOVIEW
350
41E
  3
VERSIONGUID
350
412
  0
MLINESTYLE
  5
18
102
{ACAD_REACTORS
330
17
102
}
330
17
100
AcDbMlineStyle
  2
Standard
 70
     0
  3

 62
   256
 51
90.0
 52
90.0
 71
     2
 49
0.5
 62
   256
  6
BYLAYER
 49
-0.5
 62
   256
  6
BYLAYER
  0
VISUALSTYLE
  5
2F
102
{ACAD_REACTORS
330
2A
102
}
330
2A
100
AcDbVisualStyle
  2
2dWireframe
 70
     4
 71
     0
 72
     2
 73
     0
 90
        0
 40
-0.6
 41
-30.0
 62
     5
 63
     7
 74
     1
 91
        4
 64
     7
 65
   257
 75
     1
175
     1
 42
1.0
 92
        0
 66
   257
 43
1.0
 76
     1
 77
     6
 78
     2
 67
     7
 79
     5
170
     0
171
     0
290
     0
174
     0
 93
        1
 44
0.0
173
     0
291
     0
 45
0.0
1001
ACAD
1000
AcDbSavedByObjectVersion
1070
     0
  0
VISUALSTYLE
  5
31
102
{ACAD_REACTORS
330
2A
102
}
330
2A
100
AcDbVisualStyle
  2
3D Hidden
 70
     6
 71
     1
 72
     2
 73
     2
 90
        0
 40
-0.6
 41
-30.0
 62
     5
 63
     7
 74
     2
 91
        2
 64
     7
 65
   257
 75
     2
175
     1
 42
40.0
 92
        0
 66
   257
 43
1.0
 76
     1
 77
     6
 78
     2
 67
     7
 79
     3
170
     0
171
     0
290
     0
174
     0
 93
        1
 44
0.0
173
     0
291
     0
 45
0.0
1001
ACAD
1000
AcDbSavedByObjectVersion
1070
     0
  0
VISUALSTYLE
  5
30
102
{ACAD_REACTORS
330
2A
102
}
330
2A
100
AcDbVisualStyle
  2
3dWireframe
 70
     5
 71
     0
 72
     2
 73
     0
 90
        0
 40
-0.6
 41
-30.0
 62
     5
 63
     7
 74
     1
 91
        4
 64
     7
 65
   257
 75
     1
175
     1
 42
1.0
 92
        0
 66
   257
 43
1.0
 76
     1
 77
     6
 78
     2
 67
     7
 79
     5
170
     0
171
     0
290
     0
174
     0
 93
        1
 44
0.0
173
     0
291
     0
 45
0.0
1001
ACAD
1000
AcDbSavedByObjectVersion
1070
     0
  0
VISUALSTYLE
  5
32
102
{ACAD_REACTORS
330
2A
102
}
330
2A
100
AcDbVisualStyle
  2
Basic
 70
     7
 71
     1
 72
     0
 73
     1
 90
        0
 40
-0.6
 41
-30.0
 62
     5
 63
     7
 74
     0
 91
        4
 64
     7
 65
   257
 75
     1
175
     1
 42
1.0
 92
        8
 66
     7
 43
1.0
 76
     1
 77
     6
 78
     2
 67
     7
 79
     5
170
     0
171
     0
290
     0
174
     0
 93
        1
 44
0.0
173
     0
291
     1
 45
0.0
1001
ACAD
1000
AcDbSavedByObjectVersion
1070
     0
  0
VISUALSTYLE
  5
36
102
{ACAD_REACTORS
330
2A
102
}
330
2A
100
AcDbVisualStyle
  2
Brighten
 70
    12
 71
     2
 72
     2
 73
     0
 90
        0
 40
-0.6
 41
-30.0
 62
     5
 63
     7
 74
     1
 91
        4
 64
     7
 65
   257
 75
     1
175
     1
 42
1.0
 92
        8
 66
     7
 43
1.0
 76
     1
 77
     6
 78
     2
 67
     7
 79
     5
170
     0
171
     0
290
     0
174
     0
 93
        1
 44
50.0
173
     0
291
     1
 45
0.0
1001
ACAD
1000
AcDbSavedByObjectVersion
1070
     0
  0
VISUALSTYLE
  5
3A
102
{ACAD_REACTORS
330
2A
102
}
330
2A
100
AcDbVisualStyle
  2
ColorChange
 70
    16
 71
     2
 72
     2
 73
     3
 90
        0
 40
-0.6
 41
-30.0
 62
     5
 63
     8
 74
     1
 91
        4
 64
     7
 65
   257
 75
     1
175
     1
 42
1.0
 92
        8
 66
     8
 43
1.0
 76
     1
 77
     6
 78
     2
 67
     7
 79
     5
170
     0
171
     0
290
     0
174
     0
 93
        1
 44
0.0
173
     0
291
     1
 45
0.0
1001
ACAD
1000
AcDbSavedByObjectVersion
1070
     0
  0
VISUALSTYLE
  5
34
102
{ACAD_REACTORS
330
2A
102
}
330
2A
100
AcDbVisualStyle
  2
Conceptual
 70
     9
 71
     3
 72
     2
 73
     0
 90
        0
 40
-0.6
 41
-30.0
 62
     5
 63
     7
 74
     2
 91
        2
 64
     7
 65
   257
 75
     1
175
     1
 42
40.0
 92
        8
 66
     7
 43
1.0
 76
     1
 77
     6
 78
     2
 67
     7
 79
     3
170
     0
171
     0
290
     0
174
     0
 93
        1
 44
0.0
173
     0
291
     0
 45
0.0
1001
ACAD
1000
AcDbSavedByObjectVersion
1070
     0
  0
VISUALSTYLE
  5
35
102
{ACAD_REACTORS
330
2A
102
}
330
2A
100
AcDbVisualStyle
  2
Dim
 70
    11
 71
     2
 72
     2
 73
     0
 90
        0
 40
-0.6
 41
-30.0
 62
     5
 63
     7
 74
     1
 91
        4
 64
     7
 65
   257
 75
     1
175
     1
 42
1.0
 92
        8
 66
     7
 43
1.0
 76
     1
 77
     6
 78
     2
 67
     7
 79
     5
170
     0
171
     0
290
     0
174
     0
 93
        1
 44
-50.0
173
     0
291
     1
 45
0.0
1001
ACAD
1000
AcDbSavedByObjectVersion
1070
     0
  0
VISUALSTYLE
  5
39
102
{ACAD_REACTORS
330
2A
102
}
330
2A
100
AcDbVisualStyle
  2
Facepattern
 70
    15
 71
     2
 72
     2
 73
     0
 90
        0
 40
-0.6
 41
-30.0
 62
     5
 63
     7
 74
     1
 91
        4
 64
     7
 65
   257
 75
     1
175
     1
 42
1.0
 92
        8
 66
     7
 43
1.0
 76
     1
 77
     6
 78
     2
 67
     7
 79
     5
170
     0
171
     0
290
     0
174
     0
 93
        1
 44
0.0
173
     0
291
     1
 45
0.0
1001
ACAD
1000
AcDbSavedByObjectVersion
1070
     0
  0
VISUALSTYLE
  5
2B
102
{ACAD_REACTORS
330
2A
102
}
330
2A
100
AcDbVisualStyle
  2
Flat
 70
     0
 71
     2
 72
     1
 73
     1
 90
        2
 40
-0.6
 41
30.0
 62
     5
 63
     7
 74
     0
 91
        4
 64
     7
 65
   257
 75
     1
175
     1
 42
1.0
 92
        8
 66
     7
 43
1.0
 76
     1
 77
     6
 78
     2
 67
     7
 79
     5
170
     0
171
     0
290
     0
174
     0
 93
       13
 44
0.0
173
     0
291
     1
 45
0.0
1001
ACAD
1000
AcDbSavedByObjectVersion
1070
     0
  0
VISUALSTYLE
  5
2C
102
{ACAD_REACTORS
330
2A
102
}
330
2A
100
AcDbVisualStyle
  2
FlatWithEdges
 70
     1
 71
     2
 72
     1
 73
     1
 90
        2
 40
-0.6
 41
30.0
 62
     5
 63
     7
 74
     1
 91
        4
 64
     7
 65
   257
 75
     1
175
     1
 42
1.0
 92
        0
 66
   257
 43
1.0
 76
     1
 77
     6
 78
     2
 67
     7
 79
     5
170
     0
171
     0
290
     0
174
     0
 93
       13
 44
0.0
173
     0
291
     1
 45
0.0
1001
ACAD
1000
AcDbSavedByObjectVersion
1070
     0
  0
VISUALSTYLE
  5
2D
102
{ACAD_REACTORS
330
2A
102
}
330
2A
100
AcDbVisualStyle
  2
Gouraud
 70
     2
 71
     2
 72
     2
 73
     1
 90
        2
 40
-0.6
 41
30.0
 62
     5
 63
     7
 74
     0
 91
        4
 64
     7
 65
   257
 75
     1
175
     1
 42
1.0
 92
        0
 66
     7
 43
1.0
 76
     1
 77
     6
 78
     2
 67
     7
 79
     5
170
     0
171
     0
290
     0
174
     0
 93
       13
 44
0.0
173
     0
291
     1
 45
0.0
1001
ACAD
1000
AcDbSavedByObjectVersion
1070
     0
  0
VISUALSTYLE
  5
2E
102
{ACAD_REACTORS
330
2A
102
}
330
2A
100
AcDbVisualStyle
  2
GouraudWithEdges
 70
     3
 71
     2
 72
     2
 73
     1
 90
        2
 40
-0.6
 41
30.0
 62
     5
 63
     7
 74
     1
 91
        4
 64
     7
 65
   257
 75
     1
175
     1
 42
1.0
 92
        0
 66
   257
 43
1.0
 76
     1
 77
     6
 78
     2
 67
     7
 79
     5
170
     0
171
     0
290
     0
174
     0
 93
       13
 44
0.0
173
     0
291
     1
 45
0.0
1001
ACAD
1000
AcDbSavedByObjectVersion
1070
     0
  0
VISUALSTYLE
  5
38
102
{ACAD_REACTORS
330
2A
102
}
330
2A
100
AcDbVisualStyle
  2
Linepattern
 70
    14
 71
     2
 72
     2
 73
     0
 90
        0
 40
-0.6
 41
-30.0
 62
     5
 63
     7
 74
     1
 91
        4
 64
     7
 65
   257
 75
     7
175
     7
 42
1.0
 92
        8
 66
     7
 43
1.0
 76
     1
 77
     6
 78
     2
 67
     7
 79
     5
170
     0
171
     0
290
     0
174
     0
 93
        1
 44
0.0
173
     0
291
     1
 45
0.0
1001
ACAD
1000
AcDbSavedByObjectVersion
1070
     0
  0
VISUALSTYLE
  5
33
102
{ACAD_REACTORS
330
2A
102
}
330
2A
100
AcDbVisualStyle
  2
Realistic
 70
     8
 71
     2
 72
     2
 73
     0
 90
        0
 40
-0.6
 41
-30.0
 62
     5
 63
     7
 74
     1
 91
        0
 64
     7
 65
   257
 75
     1
175
     1
 42
1.0
 92
        8
 66
     8
 43
1.0
 76
     1
 77
     6
 78
     2
 67
     7
 79
     5
170
     0
171
     0
290
     0
174
     0
 93
       13
 44
0.0
173
     0
291
     0
 45
0.0
1001
ACAD
1000
AcDbSavedByObjectVersion
1070
     0
  0
VISUALSTYLE
  5
37
102
{ACAD_REACTORS
330
2A
102
}
330
2A
100
AcDbVisualStyle
  2
Thicken
 70
    13
 71
     2
 72
     2
 73
     0
 90
        0
 40
-0.6
 41
-30.0
 62
     5
 63
     7
 74
     1
 91
        4
 64
     7
 65
   257
 75
     1
175
     1
 42
1.0
 92
       12
 66
     7
 43
1.0
 76
     1
 77
     6
 78
     2
 67
     7
 79
     5
170
     0
171
     0
290
     0
174
     0
 93
        1
 44
0.0
173
     0
291
     1
 45
0.0
1001
ACAD
1000
AcDbSavedByObjectVersion
1070
     0
  0
XRECORD
  5
410
102
{ACAD_REACTORS
330
407
102
}
330
407
100
AcDbXrecord
 90
        0
  0
XRECORD
  5
426
102
{ACAD_REACTORS
330
407
102
}
330
407
100
AcDbXrecord
1000
DSTYLE
1002
{
1070
   340
340
11
1002
}
  0
XRECORD
  5
411
102
{ACAD_REACTORS
330
407
102
}
330
407
100
AcDbXrecord
  1
{26EDF643-2C59-47A4-969A-D81EF5186BF9}
  0
XRECORD
  5
40A
102
{ACAD_REACTORS
330
407
102
}
330
407
100
AcDbXrecord
  1

  0
XRECORD
  5
40F
102
{ACAD_REACTORS
330
407
102
}
330
407
100
AcDbXrecord
 90
        1
  0
XRECORD
  5
40C
102
{ACAD_REACTORS
330
407
102
}
330
407
100
AcDbXrecord
340
1A
  0
XRECORD
  5
40E
102
{ACAD_REACTORS
330
407
102
}
330
407
100
AcDbXrecord
 90
    10269
  0
XRECORD
  5
40D
102
{ACAD_REACTORS
330
407
102
}
330
407
100
AcDbXrecord
340
19
  0
XRECORD
  5
413
102
{ACAD_REACTORS
330
407
102
}
330
407
100
AcDbXrecord
 40
0.0
  0
XRECORD
  5
416
102
{ACAD_REACTORS
330
407
102
}
330
407
100
AcDbXrecord
340
0
  0
XRECORD
  5
41C
102
{ACAD_REACTORS
330
407
102
}
330
407
100
AcDbXrecord
 10
0.0
 20
0.0
 30
0.0
  0
XRECORD
  5
418
102
{ACAD_REACTORS
330
407
102
}
330
407
100
AcDbXrecord
 10
0.0
 20
0.0
 30
0.0
  0
XRECORD
  5
41B
102
{ACAD_REACTORS
330
407
102
}
330
407
100
AcDbXrecord
 10
0.0
 20
0.0
 30
0.0
  0
XRECORD
  5
419
102
{ACAD_REACTORS
330
407
102
}
330
407
100
AcDbXrecord
 10
0.0
 20
0.0
 30
0.0
  0
XRECORD
  5
41A
102
{ACAD_REACTORS
330
407
102
}
330
407
100
AcDbXrecord
 10
0.0
 20
0.0
 30
0.0
  0
XRECORD
  5
417
102
{ACAD_REACTORS
330
407
102
}
330
407
100
AcDbXrecord
 10
0.0
 20
0.0
 30
0.0
  0
XRECORD
  5
414
102
{ACAD_REACTORS
330
407
102
}
330
407
100
AcDbXrecord
340
0
  0
XRECORD
  5
415
102
{ACAD_REACTORS
330
407
102
}
330
407
100
AcDbXrecord
 70
     0
  0
XRECORD
  5
40B
102
{ACAD_REACTORS
330
407
102
}
330
407
100
AcDbXrecord
  1

  0
XRECORD
  5
408
102
{ACAD_REACTORS
330
407
102
}
330
407
100
AcDbXrecord
 90
        1
  0
XRECORD
  5
409
102
{ACAD_REACTORS
330
407
102
}
330
407
100
AcDbXrecord
 90
       70
  0
XRECORD
  5
41F
102
{ACAD_REACTORS
330
407
102
}
330
407
100
AcDbXrecord
340
0
  0
XRECORD
  5
425
102
{ACAD_REACTORS
330
407
102
}
330
407
100
AcDbXrecord
 10
0.0
 20
0.0
 30
0.0
  0
XRECORD
  5
421
102
{ACAD_REACTORS
330
407
102
}
330
407
100
AcDbXrecord
 10
0.0
 20
0.0
 30
0.0
  0
XRECORD
  5
424
102
{ACAD_REACTORS
330
407
102
}
330
407
100
AcDbXrecord
 10
0.0
 20
0.0
 30
0.0
  0
XRECORD
  5
422
102
{ACAD_REACTORS
330
407
102
}
330
407
100
AcDbXrecord
 10
0.0
 20
0.0
 30
0.0
  0
XRECORD
  5
423
102
{ACAD_REACTORS
330
407
102
}
330
407
100
AcDbXrecord
 10
0.0
 20
0.0
 30
0.0
  0
XRECORD
  5
420
102
{ACAD_REACTORS
330
407
102
}
330
407
100
AcDbXrecord
 10
0.0
 20
0.0
 30
0.0
  0
XRECORD
  5
41D
102
{ACAD_REACTORS
330
407
102
}
330
407
100
AcDbXrecord
340
0
  0
XRECORD
  5
41E
102
{ACAD_REACTORS
330
407
102
}
330
407
100
AcDbXrecord
 70
     0
  0
XRECORD
  5
412
102
{ACAD_REACTORS
330
407
102
}
330
407
100
AcDbXrecord
  1
{FAEB1C32-E019-11D5-929B-00C0DF256EC4}
  0
ENDSEC
  0
EOF
