  0
SECTION
  2
HEADER
  9
$ACADVER
  1
AC1014
  9
$ACADMAINTVER
 70
     9
  9
$DWGCODEPAGE
  3
ANSI_1250
  9
$INSBASE
 10
0.0
 20
0.0
 30
0.0
  9
$EXTMIN
 10
1.000000000000000E+20
 20
1.000000000000000E+20
 30
1.000000000000000E+20
  9
$EXTMAX
 10
-1.000000000000000E+20
 20
-1.000000000000000E+20
 30
-1.000000000000000E+20
  9
$LIMMIN
 10
0.0
 20
0.0
  9
$LIMMAX
 10
12.0
 20
9.0
  9
$ORTHOMODE
 70
     0
  9
$REGENMODE
 70
     1
  9
$FILLMODE
 70
     1
  9
$QTEXTMODE
 70
     0
  9
$MIRRTEXT
 70
     1
  9
$DRAGMODE
 70
     2
  9
$LTSCALE
 40
1.0
  9
$OSMODE
 70
    37
  9
$ATTMODE
 70
     1
  9
$TEXTSIZE
 40
0.2
  9
$TRACEWID
 40
0.05
  9
$TEXTSTYLE
  7
STANDARD
  9
$CLAYER
  8
0
  9
$CELTYPE
  6
BYLAYER
  9
$CECOLOR
 62
   256
  9
$CELTSCALE
 40
1.0
  9
$DELOBJ
 70
     1
  9
$DISPSILH
 70
     0
  9
$DIMSCALE
 40
1.0
  9
$DIMASZ
 40
0.18
  9
$DIMEXO
 40
0.0625
  9
$DIMDLI
 40
0.38
  9
$DIMRND
 40
0.0
  9
$DIMDLE
 40
0.0
  9
$DIMEXE
 40
0.18
  9
$DIMTP
 40
0.0
  9
$DIMTM
 40
0.0
  9
$DIMTXT
 40
0.18
  9
$DIMCEN
 40
0.09
  9
$DIMTSZ
 40
0.0
  9
$DIMTOL
 70
     0
  9
$DIMLIM
 70
     0
  9
$DIMTIH
 70
     1
  9
$DIMTOH
 70
     1
  9
$DIMSE1
 70
     0
  9
$DIMSE2
 70
     0
  9
$DIMTAD
 70
     0
  9
$DIMZIN
 70
     0
  9
$DIMBLK
  1

  9
$DIMASO
 70
     1
  9
$DIMSHO
 70
     1
  9
$DIMPOST
  1

  9
$DIMAPOST
  1

  9
$DIMALT
 70
     0
  9
$DIMALTD
 70
     2
  9
$DIMALTF
 40
25.4
  9
$DIMLFAC
 40
1.0
  9
$DIMTOFL
 70
     0
  9
$DIMTVP
 40
0.0
  9
$DIMTIX
 70
     0
  9
$DIMSOXD
 70
     0
  9
$DIMSAH
 70
     0
  9
$DIMBLK1
  1

  9
$DIMBLK2
  1

  9
$DIMSTYLE
  2
STANDARD
  9
$DIMCLRD
 70
     0
  9
$DIMCLRE
 70
     0
  9
$DIMCLRT
 70
     0
  9
$DIMTFAC
 40
1.0
  9
$DIMGAP
 40
0.09
  9
$DIMJUST
 70
     0
  9
$DIMSD1
 70
     0
  9
$DIMSD2
 70
     0
  9
$DIMTOLJ
 70
     1
  9
$DIMTZIN
 70
     0
  9
$DIMALTZ
 70
     0
  9
$DIMALTTZ
 70
     0
  9
$DIMFIT
 70
     3
  9
$DIMUPT
 70
     0
  9
$DIMUNIT
 70
     2
  9
$DIMDEC
 70
     4
  9
$DIMTDEC
 70
     4
  9
$DIMALTU
 70
     2
  9
$DIMALTTD
 70
     2
  9
$DIMTXSTY
  7
STANDARD
  9
$DIMAUNIT
 70
     0
  9
$LUNITS
 70
     2
  9
$LUPREC
 70
     4
  9
$SKETCHINC
 40
0.1
  9
$FILLETRAD
 40
0.5
  9
$AUNITS
 70
     0
  9
$AUPREC
 70
     0
  9
$MENU
  1
.
  9
$ELEVATION
 40
0.0
  9
$PELEVATION
 40
0.0
  9
$THICKNESS
 40
0.0
  9
$LIMCHECK
 70
     0
  9
$CHAMFERA
 40
0.5
  9
$CHAMFERB
 40
0.5
  9
$CHAMFERC
 40
1.0
  9
$CHAMFERD
 40
0.0
  9
$SKPOLY
 70
     0
  9
$TDCREATE
 40
2459698.406504699
  9
$TDUPDATE
 40
2459698.406504711
  9
$TDINDWG
 40
0.0000000116
  9
$TDUSRTIMER
 40
0.0000000116
  9
$USRTIMER
 70
     1
  9
$ANGBASE
 50
0.0
  9
$ANGDIR
 70
     0
  9
$PDMODE
 70
     0
  9
$PDSIZE
 40
0.0
  9
$PLINEWID
 40
0.0
  9
$COORDS
 70
     1
  9
$SPLFRAME
 70
     0
  9
$SPLINETYPE
 70
     6
  9
$SPLINESEGS
 70
     8
  9
$ATTDIA
 70
     0
  9
$ATTREQ
 70
     1
  9
$HANDLING
 70
     1
  9
$HANDSEED
  5
433
  9
$SURFTAB1
 70
     6
  9
$SURFTAB2
 70
     6
  9
$SURFTYPE
 70
     6
  9
$SURFU
 70
     6
  9
$SURFV
 70
     6
  9
$UCSNAME
  2

  9
$UCSORG
 10
0.0
 20
0.0
 30
0.0
  9
$UCSXDIR
 10
1.0
 20
0.0
 30
0.0
  9
$UCSYDIR
 10
0.0
 20
1.0
 30
0.0
  9
$PUCSNAME
  2

  9
$PUCSORG
 10
0.0
 20
0.0
 30
0.0
  9
$PUCSXDIR
 10
1.0
 20
0.0
 30
0.0
  9
$PUCSYDIR
 10
0.0
 20
1.0
 30
0.0
  9
$USERI1
 70
     0
  9
$USERI2
 70
     0
  9
$USERI3
 70
     0
  9
$USERI4
 70
     0
  9
$USERI5
 70
     0
  9
$USERR1
 40
0.0
  9
$USERR2
 40
0.0
  9
$USERR3
 40
0.0
  9
$USERR4
 40
0.0
  9
$USERR5
 40
0.0
  9
$WORLDVIEW
 70
     1
  9
$SHADEDGE
 70
     3
  9
$SHADEDIF
 70
    70
  9
$TILEMODE
 70
     1
  9
$MAXACTVP
 70
    64
  9
$PINSBASE
 10
0.0
 20
0.0
 30
0.0
  9
$PLIMCHECK
 70
     0
  9
$PEXTMIN
 10
1.000000000000000E+20
 20
1.000000000000000E+20
 30
1.000000000000000E+20
  9
$PEXTMAX
 10
-1.000000000000000E+20
 20
-1.000000000000000E+20
 30
-1.000000000000000E+20
  9
$PLIMMIN
 10
0.0
 20
0.0
  9
$PLIMMAX
 10
12.0
 20
9.0
  9
$UNITMODE
 70
     0
  9
$VISRETAIN
 70
     1
  9
$PLINEGEN
 70
     0
  9
$PSLTSCALE
 70
     1
  9
$TREEDEPTH
 70
  3020
  9
$PICKSTYLE
 70
     1
  9
$CMLSTYLE
  2
STANDARD
  9
$CMLJUST
 70
     0
  9
$CMLSCALE
 40
1.0
  9
$PROXYGRAPHICS
 70
     1
  9
$MEASUREMENT
 70
     0
  0
ENDSEC
  0
SECTION
  2
CLASSES
  0
CLASS
  1
ACDBDICTIONARYWDFLT
  2
AcDbDictionaryWithDefault
  3
ObjectDBX Classes
 90
        0
280
     0
281
     0
  0
CLASS
  1
VISUALSTYLE
  2
AcDbVisualStyle
  3
ObjectDBX Classes
 90
     4095
280
     0
281
     0
  0
CLASS
  1
XRECORD
  2
AcDbXrecord
  3
AutoCAD 2000
 90
        0
280
     0
281
     0
  0
CLASS
  1
LWPOLYLINE
  2
AcDbPolyline
  3
AutoCAD 2000
 90
        0
280
     0
281
     1
  0
CLASS
  1
HATCH
  2
AcDbHatch
  3
AutoCAD 2000
 90
        0
280
     0
281
     1
  0
CLASS
  1
ACDBPLACEHOLDER
  2
AcDbPlaceHolder
  3
ObjectDBX Classes
 90
        0
280
     0
281
     0
  0
CLASS
  1
LAYOUT
  2
AcDbLayout
  3
ObjectDBX Classes
 90
        0
280
     0
281
     0
  0
ENDSEC
  0
SECTION
  2
TABLES
  0
TABLE
  2
VPORT
  5
8
330
0
100
AcDbSymbolTable
 70
     1
  0
VPORT
  5
29
330
8
100
AcDbSymbolTableRecord
100
AcDbViewportTableRecord
  2
*ACTIVE
 70
     0
 10
0.0
 20
0.0
 11
1.0
 21
1.0
 12
0.0
 22
0.0
 13
0.0
 23
0.0
 14
0.5
 24
0.5
 15
0.5
 25
0.5
 16
0.0
 26
0.0
 36
1.0
 17
74.43611109250209
 27
-115.5347221933386
 37
0.0
 40
77.96388886939792
 41
0.9049773755656108
 42
50.0
 43
0.0
 44
0.0
 50
0.0
 51
0.0
 71
     0
 72
   100
 73
     1
 74
     3
 75
     0
 76
     0
 77
     0
 78
     0
  0
ENDTAB
  0
TABLE
  2
LTYPE
  5
5
330
0
100
AcDbSymbolTable
 70
     1
  0
LTYPE
  5
14
330
5
100
AcDbSymbolTableRecord
100
AcDbLinetypeTableRecord
  2
BYBLOCK
 70
     0
  3

 72
    65
 73
     0
 40
0.0
  0
LTYPE
  5
15
330
5
100
AcDbSymbolTableRecord
100
AcDbLinetypeTableRecord
  2
BYLAYER
 70
     0
  3

 72
    65
 73
     0
 40
0.0
  0
LTYPE
  5
16
330
5
100
AcDbSymbolTableRecord
100
AcDbLinetypeTableRecord
  2
CONTINUOUS
 70
     0
  3
Solid line
 72
    65
 73
     0
 40
0.0
  0
ENDTAB
  0
TABLE
  2
LAYER
  5
2
330
0
100
AcDbSymbolTable
 70
     3
  0
LAYER
  5
10
330
2
100
AcDbSymbolTableRecord
100
AcDbLayerTableRecord
  2
0
 70
     0
 62
     7
  6
CONTINUOUS
  0
LAYER
  5
3B
330
2
100
AcDbSymbolTableRecord
100
AcDbLayerTableRecord
  2
VRSTVA_1
 70
     0
 62
     7
  6
CONTINUOUS
  0
LAYER
  5
212
330
2
100
AcDbSymbolTableRecord
100
AcDbLayerTableRecord
  2
KOTY
 70
     0
 62
     7
  6
CONTINUOUS
  0
ENDTAB
  0
TABLE
  2
STYLE
  5
3
330
0
100
AcDbSymbolTable
 70
     1
  0
STYLE
  5
11
330
3
100
AcDbSymbolTableRecord
100
AcDbTextStyleTableRecord
  2
STANDARD
 70
     0
 40
0.0
 41
1.0
 50
0.0
 71
     0
 42
0.2
  3
txt
  4

  0
ENDTAB
  0
TABLE
  2
VIEW
  5
6
330
0
100
AcDbSymbolTable
 70
     0
  0
ENDTAB
  0
TABLE
  2
UCS
  5
7
330
0
100
AcDbSymbolTable
 70
     0
  0
ENDTAB
  0
TABLE
  2
APPID
  5
9
330
0
100
AcDbSymbolTable
 70
     1
  0
APPID
  5
12
330
9
100
AcDbSymbolTableRecord
100
AcDbRegAppTableRecord
  2
ACAD
 70
     0
  0
ENDTAB
  0
TABLE
  2
DIMSTYLE
  5
A
330
0
100
AcDbSymbolTable
 70
     1
  0
DIMSTYLE
105
27
330
A
100
AcDbSymbolTableRecord
100
AcDbDimStyleTableRecord
  2
STANDARD
 70
     0
  3

  4

  5

  6

  7

 40
1.0
 41
0.18
 42
0.0625
 43
0.38
 44
0.18
 45
0.0
 46
0.0
 47
0.0
 48
0.0
140
0.18
141
0.09
142
0.0
143
25.4
144
1.0
145
0.0
146
1.0
147
0.09
 71
     0
 72
     0
 73
     1
 74
     1
 75
     0
 76
     0
 77
     0
 78
     0
170
     0
171
     2
172
     0
173
     0
174
     0
175
     0
176
     0
177
     0
178
     0
270
     2
271
     4
272
     4
273
     2
274
     2
340
11
275
     0
280
     0
281
     0
282
     0
283
     1
284
     0
285
     0
286
     0
287
     3
288
     0
  0
ENDTAB
  0
TABLE
  2
BLOCK_RECORD
  5
1
330
0
100
AcDbSymbolTable
 70
     4
  0
BLOCK_RECORD
  5
1F
330
1
100
AcDbSymbolTableRecord
100
AcDbBlockTableRecord
  2
*MODEL_SPACE
  0
BLOCK_RECORD
  5
1B
330
1
100
AcDbSymbolTableRecord
100
AcDbBlockTableRecord
  2
*PAPER_SPACE
  0
BLOCK_RECORD
  5
213
330
1
100
AcDbSymbolTableRecord
100
AcDbBlockTableRecord
  2
BLOCK_2
  0
BLOCK_RECORD
  5
22F
330
1
100
AcDbSymbolTableRecord
100
AcDbBlockTableRecord
  2
BLOCK_3
  0
BLOCK_RECORD
  5
406
330
1
100
AcDbSymbolTableRecord
100
AcDbBlockTableRecord
  2
BLOCK_4
  0
ENDTAB
  0
ENDSEC
  0
SECTION
  2
BLOCKS
  0
BLOCK
  5
20
330
1F
100
AcDbEntity
  8
0
100
AcDbBlockBegin
  2
*MODEL_SPACE
 70
     0
 71
     0
 10
0.0
 20
0.0
 30
0.0
  3
*MODEL_SPACE
  1

  0
ENDBLK
  5
21
330
1F
100
AcDbEntity
  8
0
100
AcDbBlockEnd
  0
BLOCK
  5
1C
330
1B
100
AcDbEntity
 67
     1
  8
0
100
AcDbBlockBegin
  2
*PAPER_SPACE
 70
     0
 71
     0
 10
0.0
 20
0.0
 30
0.0
  3
*PAPER_SPACE
  1

  0
ENDBLK
  5
1D
330
1B
100
AcDbEntity
 67
     1
  8
0
100
AcDbBlockEnd
  0
BLOCK
  5
215
330
213
100
AcDbEntity
  8
0
100
AcDbBlockBegin
  2
BLOCK_2
 70
     0
 71
     0
 10
0.0
 20
0.0
 30
0.0
  3
BLOCK_2
  1

  0
POLYLINE
  5
217
330
213
100
AcDbEntity
  8
KOTY
 62
     7
100
AcDb2dPolyline
 66
     1
 10
0.0
 20
0.0
 30
0.0
  0
VERTEX
  5
218
330
217
100
AcDbEntity
  8
KOTY
 62
     7
100
AcDbVertex
100
AcDb2dVertex
 10
55.15391166155874
 20
-84.77759872012504
 30
0.0
  0
VERTEX
  5
219
330
217
100
AcDbEntity
  8
KOTY
 62
     7
100
AcDbVertex
100
AcDb2dVertex
 10
104.953972684265
 20
-84.77759872012504
 30
0.0
  0
SEQEND
  5
21A
330
217
100
AcDbEntity
  8
KOTY
  0
POLYLINE
  5
21B
330
213
100
AcDbEntity
  8
KOTY
 62
     7
100
AcDb2dPolyline
 66
     1
 10
0.0
 20
0.0
 30
0.0
  0
VERTEX
  5
21C
330
21B
100
AcDbEntity
  8
KOTY
 62
     7
100
AcDbVertex
100
AcDb2dVertex
 10
104.953972684265
 20
-118.7595038223067
 30
0.0
  0
VERTEX
  5
21D
330
21B
100
AcDbEntity
  8
KOTY
 62
     7
100
AcDbVertex
100
AcDb2dVertex
 10
104.953972684265
 20
-84.2777153652153
 30
0.0
  0
SEQEND
  5
21E
330
21B
100
AcDbEntity
  8
KOTY
  0
POLYLINE
  5
21F
330
213
100
AcDbEntity
  8
KOTY
 62
     7
100
AcDb2dPolyline
 66
     1
 10
0.0
 20
0.0
 30
0.0
  0
VERTEX
  5
220
330
21F
100
AcDbEntity
  8
KOTY
 62
     7
100
AcDbVertex
100
AcDb2dVertex
 10
55.15391166155874
 20
-118.7595038223067
 30
0.0
  0
VERTEX
  5
221
330
21F
100
AcDbEntity
  8
KOTY
 62
     7
100
AcDbVertex
100
AcDb2dVertex
 10
55.15391166155874
 20
-84.2777153652153
 30
0.0
  0
SEQEND
  5
222
330
21F
100
AcDbEntity
  8
KOTY
  0
POLYLINE
  5
223
330
213
100
AcDbEntity
  8
KOTY
 62
     7
100
AcDb2dPolyline
 66
     1
 10
0.0
 20
0.0
 30
0.0
  0
VERTEX
  5
224
330
223
100
AcDbEntity
  8
KOTY
 62
     7
100
AcDbVertex
100
AcDb2dVertex
 10
46.15394421589207
 20
-89.0846570957844
 30
0.0
  0
VERTEX
  5
225
330
223
100
AcDbEntity
  8
KOTY
 62
     7
100
AcDbVertex
100
AcDb2dVertex
 10
46.15394421589207
 20
-148.4345228036032
 30
0.0
  0
SEQEND
  5
226
330
223
100
AcDbEntity
  8
KOTY
  0
POLYLINE
  5
227
330
213
100
AcDbEntity
  8
KOTY
 62
     7
100
AcDb2dPolyline
 66
     1
 10
0.0
 20
0.0
 30
0.0
  0
VERTEX
  5
228
330
227
100
AcDbEntity
  8
KOTY
 62
     7
100
AcDbVertex
100
AcDb2dVertex
 10
58.80399032818095
 20
-148.4345228036032
 30
0.0
  0
VERTEX
  5
229
330
227
100
AcDbEntity
  8
KOTY
 62
     7
100
AcDbVertex
100
AcDb2dVertex
 10
45.65406086098232
 20
-148.4345228036032
 30
0.0
  0
SEQEND
  5
22A
330
227
100
AcDbEntity
  8
KOTY
  0
POLYLINE
  5
22B
330
213
100
AcDbEntity
  8
KOTY
 62
     7
100
AcDb2dPolyline
 66
     1
 10
0.0
 20
0.0
 30
0.0
  0
VERTEX
  5
22C
330
22B
100
AcDbEntity
  8
KOTY
 62
     7
100
AcDbVertex
100
AcDb2dVertex
 10
58.80399032818095
 20
-89.0846570957844
 30
0.0
  0
VERTEX
  5
22D
330
22B
100
AcDbEntity
  8
KOTY
 62
     7
100
AcDbVertex
100
AcDb2dVertex
 10
45.65406086098232
 20
-89.0846570957844
 30
0.0
  0
SEQEND
  5
22E
330
22B
100
AcDbEntity
  8
KOTY
  0
ENDBLK
  5
216
330
213
100
AcDbEntity
  8
0
100
AcDbBlockEnd
  0
BLOCK
  5
231
330
22F
100
AcDbEntity
  8
0
100
AcDbBlockBegin
  2
BLOCK_3
 70
     0
 71
     0
 10
0.0
 20
0.0
 30
0.0
  3
BLOCK_3
  1

  0
POLYLINE
  5
233
330
22F
100
AcDbEntity
  8
KOTY
100
AcDb2dPolyline
 66
     1
 10
0.0
 20
0.0
 30
0.0
  0
VERTEX
  5
234
330
233
100
AcDbEntity
  8
KOTY
100
AcDbVertex
100
AcDb2dVertex
 10
44.89527858035604
 20
-122.1486165059212
 30
0.0
  0
VERTEX
  5
235
330
233
100
AcDbEntity
  8
KOTY
100
AcDbVertex
100
AcDb2dVertex
 10
44.89527858035604
 20
-122.7234306876351
 30
0.0
  0
VERTEX
  5
236
330
233
100
AcDbEntity
  8
KOTY
100
AcDbVertex
100
AcDb2dVertex
 10
42.72796901058537
 20
-122.7234306876351
 30
0.0
  0
VERTEX
  5
237
330
233
100
AcDbEntity
  8
KOTY
100
AcDbVertex
100
AcDb2dVertex
 10
42.90763074014115
 20
-122.9459838559823
 30
0.0
  0
VERTEX
  5
238
330
233
100
AcDbEntity
  8
KOTY
100
AcDbVertex
100
AcDb2dVertex
 10
43.05266926007017
 20
-123.193858476146
 30
0.0
  0
VERTEX
  5
239
330
233
100
AcDbEntity
  8
KOTY
100
AcDbVertex
100
AcDb2dVertex
 10
43.16394584424373
 20
-123.4663655290292
 30
0.0
  0
VERTEX
  5
23A
330
233
100
AcDbEntity
  8
KOTY
100
AcDbVertex
100
AcDb2dVertex
 10
42.64201387822839
 20
-123.4663655290292
 30
0.0
  0
VERTEX
  5
23B
330
233
100
AcDbEntity
  8
KOTY
100
AcDbVertex
100
AcDb2dVertex
 10
42.53573268250843
 20
-123.2314100169352
 30
0.0
  0
VERTEX
  5
23C
330
233
100
AcDbEntity
  8
KOTY
100
AcDbVertex
100
AcDb2dVertex
 10
42.36347790824594
 20
-122.9771619701238
 30
0.0
  0
VERTEX
  5
23D
330
233
100
AcDbEntity
  8
KOTY
100
AcDbVertex
100
AcDb2dVertex
 10
42.14023572080175
 20
-122.7547810565509
 30
0.0
  0
VERTEX
  5
23E
330
233
100
AcDbEntity
  8
KOTY
100
AcDbVertex
100
AcDb2dVertex
 10
41.88271483327932
 20
-122.615082434624
 30
0.0
  0
VERTEX
  5
23F
330
233
100
AcDbEntity
  8
KOTY
100
AcDbVertex
100
AcDb2dVertex
 10
41.88271483327932
 20
-122.1486165059212
 30
0.0
  0
VERTEX
  5
240
330
233
100
AcDbEntity
  8
KOTY
100
AcDbVertex
100
AcDb2dVertex
 10
44.89527858035604
 20
-122.1486165059212
 30
0.0
  0
SEQEND
  5
241
330
233
100
AcDbEntity
  8
KOTY
  0
HATCH
  5
242
330
22F
100
AcDbEntity
  8
KOTY
 62
     7
100
AcDbHatch
 10
0.0
 20
0.0
 30
0.0
210
0.0
220
0.0
230
1.0
  2
SOLID
 70
     1
 71
     0
 91
        1
 92
        1
 93
       12
 72
     1
 10
44.89527858035604
 20
-122.1486165059212
 11
44.89527858035604
 21
-122.7234306876351
 72
     1
 10
44.89527858035604
 20
-122.7234306876351
 11
42.72796901058537
 21
-122.7234306876351
 72
     1
 10
42.72796901058537
 20
-122.7234306876351
 11
42.90763074014115
 21
-122.9459838559823
 72
     1
 10
42.90763074014115
 20
-122.9459838559823
 11
43.05266926007017
 21
-123.193858476146
 72
     1
 10
43.05266926007017
 20
-123.193858476146
 11
43.16394584424373
 21
-123.4663655290292
 72
     1
 10
43.16394584424373
 20
-123.4663655290292
 11
42.64201387822839
 21
-123.4663655290292
 72
     1
 10
42.64201387822839
 20
-123.4663655290292
 11
42.53573268250843
 21
-123.2314100169352
 72
     1
 10
42.53573268250843
 20
-123.2314100169352
 11
42.36347790824594
 21
-122.9771619701238
 72
     1
 10
42.36347790824594
 20
-122.9771619701238
 11
42.14023572080175
 21
-122.7547810565509
 72
     1
 10
42.14023572080175
 20
-122.7547810565509
 11
41.88271483327932
 21
-122.615082434624
 72
     1
 10
41.88271483327932
 20
-122.615082434624
 11
41.88271483327932
 21
-122.1486165059212
 72
     1
 10
41.88271483327932
 20
-122.1486165059212
 11
44.89527858035604
 21
-122.1486165059212
 97
        0
 75
     0
 76
     1
 98
        0
  0
POLYLINE
  5
243
330
22F
100
AcDbEntity
  8
KOTY
100
AcDb2dPolyline
 66
     1
 10
0.0
 20
0.0
 30
0.0
  0
VERTEX
  5
244
330
243
100
AcDbEntity
  8
KOTY
100
AcDbVertex
100
AcDb2dVertex
 10
44.89527858035604
 20
-120.0488308076614
 30
0.0
  0
VERTEX
  5
245
330
243
100
AcDbEntity
  8
KOTY
100
AcDbVertex
100
AcDb2dVertex
 10
44.89527858035604
 20
-120.6238172441496
 30
0.0
  0
VERTEX
  5
246
330
243
100
AcDbEntity
  8
KOTY
100
AcDbVertex
100
AcDb2dVertex
 10
42.72796901058537
 20
-120.6238172441496
 30
0.0
  0
VERTEX
  5
247
330
243
100
AcDbEntity
  8
KOTY
100
AcDbVertex
100
AcDb2dVertex
 10
42.90763074014115
 20
-120.846542667271
 30
0.0
  0
VERTEX
  5
248
330
243
100
AcDbEntity
  8
KOTY
100
AcDbVertex
100
AcDb2dVertex
 10
43.05266926007017
 20
-121.0939005231119
 30
0.0
  0
VERTEX
  5
249
330
243
100
AcDbEntity
  8
KOTY
100
AcDbVertex
100
AcDb2dVertex
 10
43.16394584424373
 20
-121.3665798307695
 30
0.0
  0
VERTEX
  5
24A
330
243
100
AcDbEntity
  8
KOTY
100
AcDbVertex
100
AcDb2dVertex
 10
42.64201387822839
 20
-121.3665798307695
 30
0.0
  0
VERTEX
  5
24B
330
243
100
AcDbEntity
  8
KOTY
100
AcDbVertex
100
AcDb2dVertex
 10
42.53573268250843
 20
-121.131968828224
 30
0.0
  0
VERTEX
  5
24C
330
243
100
AcDbEntity
  8
KOTY
100
AcDbVertex
100
AcDb2dVertex
 10
42.36347790824594
 20
-120.8777207814125
 30
0.0
  0
VERTEX
  5
24D
330
243
100
AcDbEntity
  8
KOTY
100
AcDbVertex
100
AcDb2dVertex
 10
42.14023572080175
 20
-120.6551676130654
 30
0.0
  0
VERTEX
  5
24E
330
243
100
AcDbEntity
  8
KOTY
100
AcDbVertex
100
AcDb2dVertex
 10
41.88271483327932
 20
-120.5156412459128
 30
0.0
  0
VERTEX
  5
24F
330
243
100
AcDbEntity
  8
KOTY
100
AcDbVertex
100
AcDb2dVertex
 10
41.88271483327932
 20
-120.0488308076614
 30
0.0
  0
VERTEX
  5
250
330
243
100
AcDbEntity
  8
KOTY
100
AcDbVertex
100
AcDb2dVertex
 10
44.89527858035604
 20
-120.0488308076614
 30
0.0
  0
SEQEND
  5
251
330
243
100
AcDbEntity
  8
KOTY
  0
HATCH
  5
252
330
22F
100
AcDbEntity
  8
KOTY
 62
     7
100
AcDbHatch
 10
0.0
 20
0.0
 30
0.0
210
0.0
220
0.0
230
1.0
  2
SOLID
 70
     1
 71
     0
 91
        1
 92
        1
 93
       12
 72
     1
 10
44.89527858035604
 20
-120.0488308076614
 11
44.89527858035604
 21
-120.6238172441496
 72
     1
 10
44.89527858035604
 20
-120.6238172441496
 11
42.72796901058537
 21
-120.6238172441496
 72
     1
 10
42.72796901058537
 20
-120.6238172441496
 11
42.90763074014115
 21
-120.846542667271
 72
     1
 10
42.90763074014115
 20
-120.846542667271
 11
43.05266926007017
 21
-121.0939005231119
 72
     1
 10
43.05266926007017
 20
-121.0939005231119
 11
43.16394584424373
 21
-121.3665798307695
 72
     1
 10
43.16394584424373
 20
-121.3665798307695
 11
42.64201387822839
 21
-121.3665798307695
 72
     1
 10
42.64201387822839
 20
-121.3665798307695
 11
42.53573268250843
 21
-121.131968828224
 72
     1
 10
42.53573268250843
 20
-121.131968828224
 11
42.36347790824594
 21
-120.8777207814125
 72
     1
 10
42.36347790824594
 20
-120.8777207814125
 11
42.14023572080175
 21
-120.6551676130654
 72
     1
 10
42.14023572080175
 20
-120.6551676130654
 11
41.88271483327932
 21
-120.5156412459128
 72
     1
 10
41.88271483327932
 20
-120.5156412459128
 11
41.88271483327932
 21
-120.0488308076614
 72
     1
 10
41.88271483327932
 20
-120.0488308076614
 11
44.89527858035604
 21
-120.0488308076614
 97
        0
 75
     0
 76
     1
 98
        0
  0
POLYLINE
  5
253
330
22F
100
AcDbEntity
  8
KOTY
100
AcDb2dPolyline
 66
     1
 10
0.0
 20
0.0
 30
0.0
  0
VERTEX
  5
254
330
253
100
AcDbEntity
  8
KOTY
100
AcDbVertex
100
AcDb2dVertex
 10
42.94483777138185
 20
-117.8756645755658
 30
0.0
  0
VERTEX
  5
255
330
253
100
AcDbEntity
  8
KOTY
100
AcDbVertex
100
AcDb2dVertex
 10
42.6979966798637
 20
-117.9077039635786
 30
0.0
  0
VERTEX
  5
256
330
253
100
AcDbEntity
  8
KOTY
100
AcDbVertex
100
AcDb2dVertex
 10
42.51316730708005
 20
-118.0045111467142
 30
0.0
  0
VERTEX
  5
257
330
253
100
AcDbEntity
  8
KOTY
100
AcDbVertex
100
AcDb2dVertex
 10
42.3595160484379
 20
-118.2992390654773
 30
0.0
  0
VERTEX
  5
258
330
253
100
AcDbEntity
  8
KOTY
100
AcDbVertex
100
AcDb2dVertex
 10
42.48664007184362
 20
-118.5653726917128
 30
0.0
  0
VERTEX
  5
259
330
253
100
AcDbEntity
  8
KOTY
100
AcDbVertex
100
AcDb2dVertex
 10
42.65166014558709
 20
-118.643576359228
 30
0.0
  0
VERTEX
  5
25A
330
253
100
AcDbEntity
  8
KOTY
100
AcDbVertex
100
AcDb2dVertex
 10
42.89781221800819
 20
-118.6697590849159
 30
0.0
  0
VERTEX
  5
25B
330
253
100
AcDbEntity
  8
KOTY
100
AcDbVertex
100
AcDb2dVertex
 10
43.14999320752847
 20
-118.6409925376141
 30
0.0
  0
VERTEX
  5
25C
330
253
100
AcDbEntity
  8
KOTY
100
AcDbVertex
100
AcDb2dVertex
 10
43.32552082250196
 20
-118.5552096600313
 30
0.0
  0
VERTEX
  5
25D
330
253
100
AcDbEntity
  8
KOTY
100
AcDbVertex
100
AcDb2dVertex
 10
43.46056856552375
 20
-118.2684054608843
 30
0.0
  0
VERTEX
  5
25E
330
253
100
AcDbEntity
  8
KOTY
100
AcDbVertex
100
AcDb2dVertex
 10
43.32965493708426
 20
-117.9902140004504
 30
0.0
  0
VERTEX
  5
25F
330
253
100
AcDbEntity
  8
KOTY
100
AcDbVertex
100
AcDb2dVertex
 10
43.16807995882603
 20
-117.9042588680934
 30
0.0
  0
VERTEX
  5
260
330
253
100
AcDbEntity
  8
KOTY
100
AcDbVertex
100
AcDb2dVertex
 10
42.94483777138185
 20
-117.8756645755658
 30
0.0
  0
SEQEND
  5
261
330
253
100
AcDbEntity
  8
KOTY
  0
POLYLINE
  5
262
330
22F
100
AcDbEntity
  8
KOTY
100
AcDb2dPolyline
 66
     1
 10
0.0
 20
0.0
 30
0.0
  0
VERTEX
  5
263
330
262
100
AcDbEntity
  8
KOTY
100
AcDbVertex
100
AcDb2dVertex
 10
44.20126409485246
 20
-119.1772216498932
 30
0.0
  0
VERTEX
  5
264
330
262
100
AcDbEntity
  8
KOTY
100
AcDbVertex
100
AcDb2dVertex
 10
44.13994139521502
 20
-118.6204942194768
 30
0.0
  0
VERTEX
  5
265
330
262
100
AcDbEntity
  8
KOTY
100
AcDbVertex
100
AcDb2dVertex
 10
44.39177787518678
 20
-118.5140407689826
 30
0.0
  0
VERTEX
  5
266
330
262
100
AcDbEntity
  8
KOTY
100
AcDbVertex
100
AcDb2dVertex
 10
44.47359889296146
 20
-118.2868367217304
 30
0.0
  0
VERTEX
  5
267
330
262
100
AcDbEntity
  8
KOTY
100
AcDbVertex
100
AcDb2dVertex
 10
44.30978460263783
 20
-117.9840128285769
 30
0.0
  0
VERTEX
  5
268
330
262
100
AcDbEntity
  8
KOTY
100
AcDbVertex
100
AcDb2dVertex
 10
44.16147324199783
 20
-117.9108045495154
 30
0.0
  0
VERTEX
  5
269
330
262
100
AcDbEntity
  8
KOTY
100
AcDbVertex
100
AcDb2dVertex
 10
43.93513046861691
 20
-117.8577500790425
 30
0.0
  0
VERTEX
  5
26A
330
262
100
AcDbEntity
  8
KOTY
100
AcDbVertex
100
AcDb2dVertex
 10
43.63058402772083
 20
-117.8245049076098
 30
0.0
  0
VERTEX
  5
26B
330
262
100
AcDbEntity
  8
KOTY
100
AcDbVertex
100
AcDb2dVertex
 10
43.81920300553826
 20
-118.0684176679655
 30
0.0
  0
VERTEX
  5
26C
330
262
100
AcDbEntity
  8
KOTY
100
AcDbVertex
100
AcDb2dVertex
 10
43.88224825291833
 20
-118.3665906822139
 30
0.0
  0
VERTEX
  5
26D
330
262
100
AcDbEntity
  8
KOTY
100
AcDbVertex
100
AcDb2dVertex
 10
43.81420761708465
 20
-118.6968030844751
 30
0.0
  0
VERTEX
  5
26E
330
262
100
AcDbEntity
  8
KOTY
100
AcDbVertex
100
AcDb2dVertex
 10
43.60991345480933
 20
-118.9787841499428
 30
0.0
  0
VERTEX
  5
26F
330
262
100
AcDbEntity
  8
KOTY
100
AcDbVertex
100
AcDb2dVertex
 10
43.40906438801926
 20
-119.1207220839351
 30
0.0
  0
VERTEX
  5
270
330
262
100
AcDbEntity
  8
KOTY
100
AcDbVertex
100
AcDb2dVertex
 10
43.17152505431129
 20
-119.2058159424208
 30
0.0
  0
VERTEX
  5
271
330
262
100
AcDbEntity
  8
KOTY
100
AcDbVertex
100
AcDb2dVertex
 10
42.89781221800819
 20
-119.2344102349483
 30
0.0
  0
VERTEX
  5
272
330
262
100
AcDbEntity
  8
KOTY
100
AcDbVertex
100
AcDb2dVertex
 10
42.61341958570081
 20
-119.2044379042267
 30
0.0
  0
VERTEX
  5
273
330
262
100
AcDbEntity
  8
KOTY
100
AcDbVertex
100
AcDb2dVertex
 10
42.36847329669955
 20
-119.1143486572874
 30
0.0
  0
VERTEX
  5
274
330
262
100
AcDbEntity
  8
KOTY
100
AcDbVertex
100
AcDb2dVertex
 10
42.16314560577866
 20
-118.9643147489048
 30
0.0
  0
VERTEX
  5
275
330
262
100
AcDbEntity
  8
KOTY
100
AcDbVertex
100
AcDb2dVertex
 10
42.00742728984537
 20
-118.7665662680514
 30
0.0
  0
VERTEX
  5
276
330
262
100
AcDbEntity
  8
KOTY
100
AcDbVertex
100
AcDb2dVertex
 10
41.9140652021951
 20
-118.5357448705397
 30
0.0
  0
VERTEX
  5
277
330
262
100
AcDbEntity
  8
KOTY
100
AcDbVertex
100
AcDb2dVertex
 10
41.88271483327932
 20
-118.2725395754666
 30
0.0
  0
VERTEX
  5
278
330
262
100
AcDbEntity
  8
KOTY
100
AcDbVertex
100
AcDb2dVertex
 10
41.92198892181117
 20
-117.9865966501909
 30
0.0
  0
VERTEX
  5
279
330
262
100
AcDbEntity
  8
KOTY
100
AcDbVertex
100
AcDb2dVertex
 10
42.04015569695524
 20
-117.7369994822845
 30
0.0
  0
VERTEX
  5
27A
330
262
100
AcDbEntity
  8
KOTY
100
AcDbVertex
100
AcDb2dVertex
 10
42.23704290393727
 20
-117.5237480717475
 30
0.0
  0
VERTEX
  5
27B
330
262
100
AcDbEntity
  8
KOTY
100
AcDbVertex
100
AcDb2dVertex
 10
42.44116481143832
 20
-117.3955905196962
 30
0.0
  0
VERTEX
  5
27C
330
262
100
AcDbEntity
  8
KOTY
100
AcDbVertex
100
AcDb2dVertex
 10
42.70299206831731
 20
-117.3041232345629
 30
0.0
  0
VERTEX
  5
27D
330
262
100
AcDbEntity
  8
KOTY
100
AcDbVertex
100
AcDb2dVertex
 10
43.02149114592866
 20
-117.2493462163474
 30
0.0
  0
VERTEX
  5
27E
330
262
100
AcDbEntity
  8
KOTY
100
AcDbVertex
100
AcDb2dVertex
 10
43.39717880859515
 20
-117.230742700727
 30
0.0
  0
VERTEX
  5
27F
330
262
100
AcDbEntity
  8
KOTY
100
AcDbVertex
100
AcDb2dVertex
 10
43.77992891700641
 20
-117.2502074902187
 30
0.0
  0
VERTEX
  5
280
330
262
100
AcDbEntity
  8
KOTY
100
AcDbVertex
100
AcDb2dVertex
 10
44.105145930814
 20
-117.3072238204996
 30
0.0
  0
VERTEX
  5
281
330
262
100
AcDbEntity
  8
KOTY
100
AcDbVertex
100
AcDb2dVertex
 10
44.37317435956643
 20
-117.402652965441
 30
0.0
  0
VERTEX
  5
282
330
262
100
AcDbEntity
  8
KOTY
100
AcDbVertex
100
AcDb2dVertex
 10
44.58401420326372
 20
-117.5359781607202
 30
0.0
  0
VERTEX
  5
283
330
262
100
AcDbEntity
  8
KOTY
100
AcDbVertex
100
AcDb2dVertex
 10
44.78658581779641
 20
-117.7595648577129
 30
0.0
  0
VERTEX
  5
284
330
262
100
AcDbEntity
  8
KOTY
100
AcDbVertex
100
AcDb2dVertex
 10
44.9078531788772
 20
-118.0241481909801
 30
0.0
  0
VERTEX
  5
285
330
262
100
AcDbEntity
  8
KOTY
100
AcDbVertex
100
AcDb2dVertex
 10
44.94816079605463
 20
-118.329900415296
 30
0.0
  0
VERTEX
  5
286
330
262
100
AcDbEntity
  8
KOTY
100
AcDbVertex
100
AcDb2dVertex
 10
44.90182426177802
 20
-118.6482272381331
 30
0.0
  0
VERTEX
  5
287
330
262
100
AcDbEntity
  8
KOTY
100
AcDbVertex
100
AcDb2dVertex
 10
44.76212563985113
 20
-118.898857934685
 30
0.0
  0
VERTEX
  5
288
330
262
100
AcDbEntity
  8
KOTY
100
AcDbVertex
100
AcDb2dVertex
 10
44.52768689207988
 20
-119.0769693712724
 30
0.0
  0
VERTEX
  5
289
330
262
100
AcDbEntity
  8
KOTY
100
AcDbVertex
100
AcDb2dVertex
 10
44.20126409485246
 20
-119.1772216498932
 30
0.0
  0
SEQEND
  5
28A
330
262
100
AcDbEntity
  8
KOTY
  0
HATCH
  5
28B
330
22F
100
AcDbEntity
  8
KOTY
 62
     7
100
AcDbHatch
 10
0.0
 20
0.0
 30
0.0
210
0.0
220
0.0
230
1.0
  2
SOLID
 70
     1
 71
     0
 91
        2
 92
        1
 93
       12
 72
     1
 10
42.94483777138185
 20
-117.8756645755658
 11
42.6979966798637
 21
-117.9077039635786
 72
     1
 10
42.6979966798637
 20
-117.9077039635786
 11
42.51316730708005
 21
-118.0045111467142
 72
     1
 10
42.51316730708005
 20
-118.0045111467142
 11
42.3595160484379
 21
-118.2992390654773
 72
     1
 10
42.3595160484379
 20
-118.2992390654773
 11
42.48664007184362
 21
-118.5653726917128
 72
     1
 10
42.48664007184362
 20
-118.5653726917128
 11
42.65166014558709
 21
-118.643576359228
 72
     1
 10
42.65166014558709
 20
-118.643576359228
 11
42.89781221800819
 21
-118.6697590849159
 72
     1
 10
42.89781221800819
 20
-118.6697590849159
 11
43.14999320752847
 21
-118.6409925376141
 72
     1
 10
43.14999320752847
 20
-118.6409925376141
 11
43.32552082250196
 21
-118.5552096600313
 72
     1
 10
43.32552082250196
 20
-118.5552096600313
 11
43.46056856552375
 21
-118.2684054608843
 72
     1
 10
43.46056856552375
 20
-118.2684054608843
 11
43.32965493708426
 21
-117.9902140004504
 72
     1
 10
43.32965493708426
 20
-117.9902140004504
 11
43.16807995882603
 21
-117.9042588680934
 72
     1
 10
43.16807995882603
 20
-117.9042588680934
 11
42.94483777138185
 21
-117.8756645755658
 97
        0
 92
        1
 93
       38
 72
     1
 10
44.20126409485246
 20
-119.1772216498932
 11
44.13994139521502
 21
-118.6204942194768
 72
     1
 10
44.13994139521502
 20
-118.6204942194768
 11
44.39177787518678
 21
-118.5140407689826
 72
     1
 10
44.39177787518678
 20
-118.5140407689826
 11
44.47359889296146
 21
-118.2868367217304
 72
     1
 10
44.47359889296146
 20
-118.2868367217304
 11
44.30978460263783
 21
-117.9840128285769
 72
     1
 10
44.30978460263783
 20
-117.9840128285769
 11
44.16147324199783
 21
-117.9108045495154
 72
     1
 10
44.16147324199783
 20
-117.9108045495154
 11
43.93513046861691
 21
-117.8577500790425
 72
     1
 10
43.93513046861691
 20
-117.8577500790425
 11
43.63058402772083
 21
-117.8245049076098
 72
     1
 10
43.63058402772083
 20
-117.8245049076098
 11
43.81920300553826
 21
-118.0684176679655
 72
     1
 10
43.81920300553826
 20
-118.0684176679655
 11
43.88224825291833
 21
-118.3665906822139
 72
     1
 10
43.88224825291833
 20
-118.3665906822139
 11
43.81420761708465
 21
-118.6968030844751
 72
     1
 10
43.81420761708465
 20
-118.6968030844751
 11
43.60991345480933
 21
-118.9787841499428
 72
     1
 10
43.60991345480933
 20
-118.9787841499428
 11
43.40906438801926
 21
-119.1207220839351
 72
     1
 10
43.40906438801926
 20
-119.1207220839351
 11
43.17152505431129
 21
-119.2058159424208
 72
     1
 10
43.17152505431129
 20
-119.2058159424208
 11
42.89781221800819
 21
-119.2344102349483
 72
     1
 10
42.89781221800819
 20
-119.2344102349483
 11
42.61341958570081
 21
-119.2044379042267
 72
     1
 10
42.61341958570081
 20
-119.2044379042267
 11
42.36847329669955
 21
-119.1143486572874
 72
     1
 10
42.36847329669955
 20
-119.1143486572874
 11
42.16314560577866
 21
-118.9643147489048
 72
     1
 10
42.16314560577866
 20
-118.9643147489048
 11
42.00742728984537
 21
-118.7665662680514
 72
     1
 10
42.00742728984537
 20
-118.7665662680514
 11
41.9140652021951
 21
-118.5357448705397
 72
     1
 10
41.9140652021951
 20
-118.5357448705397
 11
41.88271483327932
 21
-118.2725395754666
 72
     1
 10
41.88271483327932
 20
-118.2725395754666
 11
41.92198892181117
 21
-117.9865966501909
 72
     1
 10
41.92198892181117
 20
-117.9865966501909
 11
42.04015569695524
 21
-117.7369994822845
 72
     1
 10
42.04015569695524
 20
-117.7369994822845
 11
42.23704290393727
 21
-117.5237480717475
 72
     1
 10
42.23704290393727
 20
-117.5237480717475
 11
42.44116481143832
 21
-117.3955905196962
 72
     1
 10
42.44116481143832
 20
-117.3955905196962
 11
42.70299206831731
 21
-117.3041232345629
 72
     1
 10
42.70299206831731
 20
-117.3041232345629
 11
43.02149114592866
 21
-117.2493462163474
 72
     1
 10
43.02149114592866
 20
-117.2493462163474
 11
43.39717880859515
 21
-117.230742700727
 72
     1
 10
43.39717880859515
 20
-117.230742700727
 11
43.77992891700641
 21
-117.2502074902187
 72
     1
 10
43.77992891700641
 20
-117.2502074902187
 11
44.105145930814
 21
-117.3072238204996
 72
     1
 10
44.105145930814
 20
-117.3072238204996
 11
44.37317435956643
 21
-117.402652965441
 72
     1
 10
44.37317435956643
 20
-117.402652965441
 11
44.58401420326372
 21
-117.5359781607202
 72
     1
 10
44.58401420326372
 20
-117.5359781607202
 11
44.78658581779641
 21
-117.7595648577129
 72
     1
 10
44.78658581779641
 20
-117.7595648577129
 11
44.9078531788772
 21
-118.0241481909801
 72
     1
 10
44.9078531788772
 20
-118.0241481909801
 11
44.94816079605463
 21
-118.329900415296
 72
     1
 10
44.94816079605463
 20
-118.329900415296
 11
44.90182426177802
 21
-118.6482272381331
 72
     1
 10
44.90182426177802
 20
-118.6482272381331
 11
44.76212563985113
 21
-118.898857934685
 72
     1
 10
44.76212563985113
 20
-118.898857934685
 11
44.52768689207988
 21
-119.0769693712724
 72
     1
 10
44.52768689207988
 20
-119.0769693712724
 11
44.20126409485246
 21
-119.1772216498932
 97
        0
 75
     0
 76
     1
 98
        0
  0
POLYLINE
  5
28C
330
22F
100
AcDbEntity
  8
KOTY
100
AcDb2dPolyline
 66
     1
 10
0.0
 20
0.0
 30
0.0
  0
VERTEX
  5
28D
330
28C
100
AcDbEntity
  8
KOTY
100
AcDbVertex
100
AcDb2dVertex
 10
44.04657930756475
 20
-115.3119967702171
 30
0.0
  0
VERTEX
  5
28E
330
28C
100
AcDbEntity
  8
KOTY
100
AcDbVertex
100
AcDb2dVertex
 10
44.04657930756475
 20
-116.1968695456036
 30
0.0
  0
VERTEX
  5
28F
330
28C
100
AcDbEntity
  8
KOTY
100
AcDbVertex
100
AcDb2dVertex
 10
43.70499809020222
 20
-116.1968695456036
 30
0.0
  0
VERTEX
  5
290
330
28C
100
AcDbEntity
  8
KOTY
100
AcDbVertex
100
AcDb2dVertex
 10
43.70499809020222
 20
-115.3119967702171
 30
0.0
  0
VERTEX
  5
291
330
28C
100
AcDbEntity
  8
KOTY
100
AcDbVertex
100
AcDb2dVertex
 10
44.04657930756475
 20
-115.3119967702171
 30
0.0
  0
SEQEND
  5
292
330
28C
100
AcDbEntity
  8
KOTY
  0
POLYLINE
  5
293
330
22F
100
AcDbEntity
  8
KOTY
100
AcDb2dPolyline
 66
     1
 10
0.0
 20
0.0
 30
0.0
  0
VERTEX
  5
294
330
293
100
AcDbEntity
  8
KOTY
100
AcDbVertex
100
AcDb2dVertex
 10
43.33292777779524
 20
-115.3119967702171
 30
0.0
  0
VERTEX
  5
295
330
293
100
AcDbEntity
  8
KOTY
100
AcDbVertex
100
AcDb2dVertex
 10
43.33292777779524
 20
-115.6179212493073
 30
0.0
  0
VERTEX
  5
296
330
293
100
AcDbEntity
  8
KOTY
100
AcDbVertex
100
AcDb2dVertex
 10
43.70999347865584
 20
-115.6179212493073
 30
0.0
  0
VERTEX
  5
297
330
293
100
AcDbEntity
  8
KOTY
100
AcDbVertex
100
AcDb2dVertex
 10
43.70999347865584
 20
-115.8911173212876
 30
0.0
  0
VERTEX
  5
298
330
293
100
AcDbEntity
  8
KOTY
100
AcDbVertex
100
AcDb2dVertex
 10
43.33292777779524
 20
-115.8911173212876
 30
0.0
  0
VERTEX
  5
299
330
293
100
AcDbEntity
  8
KOTY
100
AcDbVertex
100
AcDb2dVertex
 10
43.33292777779524
 20
-116.1968695456036
 30
0.0
  0
VERTEX
  5
29A
330
293
100
AcDbEntity
  8
KOTY
100
AcDbVertex
100
AcDb2dVertex
 10
42.98635117197911
 20
-116.1968695456036
 30
0.0
  0
VERTEX
  5
29B
330
293
100
AcDbEntity
  8
KOTY
100
AcDbVertex
100
AcDb2dVertex
 10
42.98635117197911
 20
-115.8911173212876
 30
0.0
  0
VERTEX
  5
29C
330
293
100
AcDbEntity
  8
KOTY
100
AcDbVertex
100
AcDb2dVertex
 10
42.62444389125361
 20
-115.8911173212876
 30
0.0
  0
VERTEX
  5
29D
330
293
100
AcDbEntity
  8
KOTY
100
AcDbVertex
100
AcDb2dVertex
 10
42.62444389125361
 20
-115.6179212493073
 30
0.0
  0
VERTEX
  5
29E
330
293
100
AcDbEntity
  8
KOTY
100
AcDbVertex
100
AcDb2dVertex
 10
42.98635117197911
 20
-115.6179212493073
 30
0.0
  0
VERTEX
  5
29F
330
293
100
AcDbEntity
  8
KOTY
100
AcDbVertex
100
AcDb2dVertex
 10
42.98635117197911
 20
-115.3119967702171
 30
0.0
  0
VERTEX
  5
2A0
330
293
100
AcDbEntity
  8
KOTY
100
AcDbVertex
100
AcDb2dVertex
 10
43.33292777779524
 20
-115.3119967702171
 30
0.0
  0
SEQEND
  5
2A1
330
293
100
AcDbEntity
  8
KOTY
  0
HATCH
  5
2A2
330
22F
100
AcDbEntity
  8
KOTY
 62
     7
100
AcDbHatch
 10
0.0
 20
0.0
 30
0.0
210
0.0
220
0.0
230
1.0
  2
SOLID
 70
     1
 71
     0
 91
        2
 92
        1
 93
        4
 72
     1
 10
44.04657930756475
 20
-115.3119967702171
 11
44.04657930756475
 21
-116.1968695456036
 72
     1
 10
44.04657930756475
 20
-116.1968695456036
 11
43.70499809020222
 21
-116.1968695456036
 72
     1
 10
43.70499809020222
 20
-116.1968695456036
 11
43.70499809020222
 21
-115.3119967702171
 72
     1
 10
43.70499809020222
 20
-115.3119967702171
 11
44.04657930756475
 21
-115.3119967702171
 97
        0
 92
        1
 93
       12
 72
     1
 10
43.33292777779524
 20
-115.3119967702171
 11
43.33292777779524
 21
-115.6179212493073
 72
     1
 10
43.33292777779524
 20
-115.6179212493073
 11
43.70999347865584
 21
-115.6179212493073
 72
     1
 10
43.70999347865584
 20
-115.6179212493073
 11
43.70999347865584
 21
-115.8911173212876
 72
     1
 10
43.70999347865584
 20
-115.8911173212876
 11
43.33292777779524
 21
-115.8911173212876
 72
     1
 10
43.33292777779524
 20
-115.8911173212876
 11
43.33292777779524
 21
-116.1968695456036
 72
     1
 10
43.33292777779524
 20
-116.1968695456036
 11
42.98635117197911
 21
-116.1968695456036
 72
     1
 10
42.98635117197911
 20
-116.1968695456036
 11
42.98635117197911
 21
-115.8911173212876
 72
     1
 10
42.98635117197911
 20
-115.8911173212876
 11
42.62444389125361
 21
-115.8911173212876
 72
     1
 10
42.62444389125361
 20
-115.8911173212876
 11
42.62444389125361
 21
-115.6179212493073
 72
     1
 10
42.62444389125361
 20
-115.6179212493073
 11
42.98635117197911
 21
-115.6179212493073
 72
     1
 10
42.98635117197911
 20
-115.6179212493073
 11
42.98635117197911
 21
-115.3119967702171
 72
     1
 10
42.98635117197911
 20
-115.3119967702171
 11
43.33292777779524
 21
-115.3119967702171
 97
        0
 75
     0
 76
     1
 98
        0
  0
POLYLINE
  5
2A3
330
22F
100
AcDbEntity
  8
KOTY
100
AcDb2dPolyline
 66
     1
 10
0.0
 20
0.0
 30
0.0
  0
VERTEX
  5
2A4
330
2A3
100
AcDbEntity
  8
KOTY
100
AcDbVertex
100
AcDb2dVertex
 10
43.89895696602179
 20
-115.0878933089016
 30
0.0
  0
VERTEX
  5
2A5
330
2A3
100
AcDbEntity
  8
KOTY
100
AcDbVertex
100
AcDb2dVertex
 10
43.85744356542453
 20
-114.6868841944186
 30
0.0
  0
VERTEX
  5
2A6
330
2A3
100
AcDbEntity
  8
KOTY
100
AcDbVertex
100
AcDb2dVertex
 10
44.07379556189822
 20
-114.5849093680552
 30
0.0
  0
VERTEX
  5
2A7
330
2A3
100
AcDbEntity
  8
KOTY
100
AcDbVertex
100
AcDb2dVertex
 10
44.15234373896192
 20
-114.3902614731386
 30
0.0
  0
VERTEX
  5
2A8
330
2A3
100
AcDbEntity
  8
KOTY
100
AcDbVertex
100
AcDb2dVertex
 10
44.05088567692131
 20
-114.1766655530531
 30
0.0
  0
VERTEX
  5
2A9
330
2A3
100
AcDbEntity
  8
KOTY
100
AcDbVertex
100
AcDb2dVertex
 10
43.92203910577297
 20
-114.1113809936076
 30
0.0
  0
VERTEX
  5
2AA
330
2A3
100
AcDbEntity
  8
KOTY
100
AcDbVertex
100
AcDb2dVertex
 10
43.74134384757161
 20
-114.0895046372762
 30
0.0
  0
VERTEX
  5
2AB
330
2A3
100
AcDbEntity
  8
KOTY
100
AcDbVertex
100
AcDb2dVertex
 10
43.57236191402011
 20
-114.1113809936076
 30
0.0
  0
VERTEX
  5
2AC
330
2A3
100
AcDbEntity
  8
KOTY
100
AcDbVertex
100
AcDb2dVertex
 10
43.45195582681063
 20
-114.1766655530531
 30
0.0
  0
VERTEX
  5
2AD
330
2A3
100
AcDbEntity
  8
KOTY
100
AcDbVertex
100
AcDb2dVertex
 10
43.35463187935232
 20
-114.4018025430141
 30
0.0
  0
VERTEX
  5
2AE
330
2A3
100
AcDbEntity
  8
KOTY
100
AcDbVertex
100
AcDb2dVertex
 10
43.39287243923859
 20
-114.5659613428863
 30
0.0
  0
VERTEX
  5
2AF
330
2A3
100
AcDbEntity
  8
KOTY
100
AcDbVertex
100
AcDb2dVertex
 10
43.50776637367167
 20
-114.7125501557837
 30
0.0
  0
VERTEX
  5
2B0
330
2A3
100
AcDbEntity
  8
KOTY
100
AcDbVertex
100
AcDb2dVertex
 10
43.46056856552375
 20
-115.0391452077854
 30
0.0
  0
VERTEX
  5
2B1
330
2A3
100
AcDbEntity
  8
KOTY
100
AcDbVertex
100
AcDb2dVertex
 10
42.36761202282824
 20
-114.8329562429931
 30
0.0
  0
VERTEX
  5
2B2
330
2A3
100
AcDbEntity
  8
KOTY
100
AcDbVertex
100
AcDb2dVertex
 10
42.36761202282824
 20
-113.7687662475995
 30
0.0
  0
VERTEX
  5
2B3
330
2A3
100
AcDbEntity
  8
KOTY
100
AcDbVertex
100
AcDb2dVertex
 10
42.74450546891457
 20
-113.7687662475995
 30
0.0
  0
VERTEX
  5
2B4
330
2A3
100
AcDbEntity
  8
KOTY
100
AcDbVertex
100
AcDb2dVertex
 10
42.74450546891457
 20
-114.527720783
 30
0.0
  0
VERTEX
  5
2B5
330
2A3
100
AcDbEntity
  8
KOTY
100
AcDbVertex
100
AcDb2dVertex
 10
43.10107285163793
 20
-114.5907660303801
 30
0.0
  0
VERTEX
  5
2B6
330
2A3
100
AcDbEntity
  8
KOTY
100
AcDbVertex
100
AcDb2dVertex
 10
43.05060220277902
 20
-114.4546847587127
 30
0.0
  0
VERTEX
  5
2B7
330
2A3
100
AcDbEntity
  8
KOTY
100
AcDbVertex
100
AcDb2dVertex
 10
43.03372123490129
 20
-114.3158474106572
 30
0.0
  0
VERTEX
  5
2B8
330
2A3
100
AcDbEntity
  8
KOTY
100
AcDbVertex
100
AcDb2dVertex
 10
43.05542533645837
 20
-114.1463487127829
 30
0.0
  0
VERTEX
  5
2B9
330
2A3
100
AcDbEntity
  8
KOTY
100
AcDbVertex
100
AcDb2dVertex
 10
43.12053764112959
 20
-113.9951090209804
 30
0.0
  0
VERTEX
  5
2BA
330
2A3
100
AcDbEntity
  8
KOTY
100
AcDbVertex
100
AcDb2dVertex
 10
43.22836912981791
 20
-113.8614393161527
 30
0.0
  0
VERTEX
  5
2BB
330
2A3
100
AcDbEntity
  8
KOTY
100
AcDbVertex
100
AcDb2dVertex
 10
43.37134059245578
 20
-113.7584309611437
 30
0.0
  0
VERTEX
  5
2BC
330
2A3
100
AcDbEntity
  8
KOTY
100
AcDbVertex
100
AcDb2dVertex
 10
43.5398057616845
 20
-113.6960747328607
 30
0.0
  0
VERTEX
  5
2BD
330
2A3
100
AcDbEntity
  8
KOTY
100
AcDbVertex
100
AcDb2dVertex
 10
43.73410914705259
 20
-113.6754041599492
 30
0.0
  0
VERTEX
  5
2BE
330
2A3
100
AcDbEntity
  8
KOTY
100
AcDbVertex
100
AcDb2dVertex
 10
43.90085176853868
 20
-113.6922851278269
 30
0.0
  0
VERTEX
  5
2BF
330
2A3
100
AcDbEntity
  8
KOTY
100
AcDbVertex
100
AcDb2dVertex
 10
44.05519204627787
 20
-113.7424112671373
 30
0.0
  0
VERTEX
  5
2C0
330
2A3
100
AcDbEntity
  8
KOTY
100
AcDbVertex
100
AcDb2dVertex
 10
44.1969577254959
 20
-113.8257825778804
 30
0.0
  0
VERTEX
  5
2C1
330
2A3
100
AcDbEntity
  8
KOTY
100
AcDbVertex
100
AcDb2dVertex
 10
44.35112574846083
 20
-113.9801228556196
 30
0.0
  0
VERTEX
  5
2C2
330
2A3
100
AcDbEntity
  8
KOTY
100
AcDbVertex
100
AcDb2dVertex
 10
44.44379881701406
 20
-114.1697753620826
 30
0.0
  0
VERTEX
  5
2C3
330
2A3
100
AcDbEntity
  8
KOTY
100
AcDbVertex
100
AcDb2dVertex
 10
44.4748046763813
 20
-114.3945678424951
 30
0.0
  0
VERTEX
  5
2C4
330
2A3
100
AcDbEntity
  8
KOTY
100
AcDbVertex
100
AcDb2dVertex
 10
44.45740694418079
 20
-114.5764688841163
 30
0.0
  0
VERTEX
  5
2C5
330
2A3
100
AcDbEntity
  8
KOTY
100
AcDbVertex
100
AcDb2dVertex
 10
44.40538600235352
 20
-114.734426512115
 30
0.0
  0
VERTEX
  5
2C6
330
2A3
100
AcDbEntity
  8
KOTY
100
AcDbVertex
100
AcDb2dVertex
 10
44.31856959612522
 20
-114.8687852360398
 30
0.0
  0
VERTEX
  5
2C7
330
2A3
100
AcDbEntity
  8
KOTY
100
AcDbVertex
100
AcDb2dVertex
 10
44.20264213304657
 20
-114.9745496674369
 30
0.0
  0
VERTEX
  5
2C8
330
2A3
100
AcDbEntity
  8
KOTY
100
AcDbVertex
100
AcDb2dVertex
 10
44.06259900157116
 20
-115.0475856917242
 30
0.0
  0
VERTEX
  5
2C9
330
2A3
100
AcDbEntity
  8
KOTY
100
AcDbVertex
100
AcDb2dVertex
 10
43.89895696602179
 20
-115.0878933089016
 30
0.0
  0
SEQEND
  5
2CA
330
2A3
100
AcDbEntity
  8
KOTY
  0
HATCH
  5
2CB
330
22F
100
AcDbEntity
  8
KOTY
 62
     7
100
AcDbHatch
 10
0.0
 20
0.0
 30
0.0
210
0.0
220
0.0
230
1.0
  2
SOLID
 70
     1
 71
     0
 91
        1
 92
        1
 93
       37
 72
     1
 10
43.89895696602179
 20
-115.0878933089016
 11
43.85744356542453
 21
-114.6868841944186
 72
     1
 10
43.85744356542453
 20
-114.6868841944186
 11
44.07379556189822
 21
-114.5849093680552
 72
     1
 10
44.07379556189822
 20
-114.5849093680552
 11
44.15234373896192
 21
-114.3902614731386
 72
     1
 10
44.15234373896192
 20
-114.3902614731386
 11
44.05088567692131
 21
-114.1766655530531
 72
     1
 10
44.05088567692131
 20
-114.1766655530531
 11
43.92203910577297
 21
-114.1113809936076
 72
     1
 10
43.92203910577297
 20
-114.1113809936076
 11
43.74134384757161
 21
-114.0895046372762
 72
     1
 10
43.74134384757161
 20
-114.0895046372762
 11
43.57236191402011
 21
-114.1113809936076
 72
     1
 10
43.57236191402011
 20
-114.1113809936076
 11
43.45195582681063
 21
-114.1766655530531
 72
     1
 10
43.45195582681063
 20
-114.1766655530531
 11
43.35463187935232
 21
-114.4018025430141
 72
     1
 10
43.35463187935232
 20
-114.4018025430141
 11
43.39287243923859
 21
-114.5659613428863
 72
     1
 10
43.39287243923859
 20
-114.5659613428863
 11
43.50776637367167
 21
-114.7125501557837
 72
     1
 10
43.50776637367167
 20
-114.7125501557837
 11
43.46056856552375
 21
-115.0391452077854
 72
     1
 10
43.46056856552375
 20
-115.0391452077854
 11
42.36761202282824
 21
-114.8329562429931
 72
     1
 10
42.36761202282824
 20
-114.8329562429931
 11
42.36761202282824
 21
-113.7687662475995
 72
     1
 10
42.36761202282824
 20
-113.7687662475995
 11
42.74450546891457
 21
-113.7687662475995
 72
     1
 10
42.74450546891457
 20
-113.7687662475995
 11
42.74450546891457
 21
-114.527720783
 72
     1
 10
42.74450546891457
 20
-114.527720783
 11
43.10107285163793
 21
-114.5907660303801
 72
     1
 10
43.10107285163793
 20
-114.5907660303801
 11
43.05060220277902
 21
-114.4546847587127
 72
     1
 10
43.05060220277902
 20
-114.4546847587127
 11
43.03372123490129
 21
-114.3158474106572
 72
     1
 10
43.03372123490129
 20
-114.3158474106572
 11
43.05542533645837
 21
-114.1463487127829
 72
     1
 10
43.05542533645837
 20
-114.1463487127829
 11
43.12053764112959
 21
-113.9951090209804
 72
     1
 10
43.12053764112959
 20
-113.9951090209804
 11
43.22836912981791
 21
-113.8614393161527
 72
     1
 10
43.22836912981791
 20
-113.8614393161527
 11
43.37134059245578
 21
-113.7584309611437
 72
     1
 10
43.37134059245578
 20
-113.7584309611437
 11
43.5398057616845
 21
-113.6960747328607
 72
     1
 10
43.5398057616845
 20
-113.6960747328607
 11
43.73410914705259
 21
-113.6754041599492
 72
     1
 10
43.73410914705259
 20
-113.6754041599492
 11
43.90085176853868
 21
-113.6922851278269
 72
     1
 10
43.90085176853868
 20
-113.6922851278269
 11
44.05519204627787
 21
-113.7424112671373
 72
     1
 10
44.05519204627787
 20
-113.7424112671373
 11
44.1969577254959
 21
-113.8257825778804
 72
     1
 10
44.1969577254959
 20
-113.8257825778804
 11
44.35112574846083
 21
-113.9801228556196
 72
     1
 10
44.35112574846083
 20
-113.9801228556196
 11
44.44379881701406
 21
-114.1697753620826
 72
     1
 10
44.44379881701406
 20
-114.1697753620826
 11
44.4748046763813
 21
-114.3945678424951
 72
     1
 10
44.4748046763813
 20
-114.3945678424951
 11
44.45740694418079
 21
-114.5764688841163
 72
     1
 10
44.45740694418079
 20
-114.5764688841163
 11
44.40538600235352
 21
-114.734426512115
 72
     1
 10
44.40538600235352
 20
-114.734426512115
 11
44.31856959612522
 21
-114.8687852360398
 72
     1
 10
44.31856959612522
 20
-114.8687852360398
 11
44.20264213304657
 21
-114.9745496674369
 72
     1
 10
44.20264213304657
 20
-114.9745496674369
 11
44.06259900157116
 21
-115.0475856917242
 72
     1
 10
44.06259900157116
 20
-115.0475856917242
 11
43.89895696602179
 21
-115.0878933089016
 97
        0
 75
     0
 76
     1
 98
        0
  0
POLYLINE
  5
2CC
330
22F
100
AcDbEntity
  8
KOTY
100
AcDb2dPolyline
 66
     1
 10
0.0
 20
0.0
 30
0.0
  0
VERTEX
  5
2CD
330
2CC
100
AcDbEntity
  8
KOTY
100
AcDbVertex
100
AcDb2dVertex
 10
78.07998858725084
 20
-82.77358667635522
 30
0.0
  0
VERTEX
  5
2CE
330
2CC
100
AcDbEntity
  8
KOTY
100
AcDbVertex
100
AcDb2dVertex
 10
77.50500215076264
 20
-82.77358667635522
 30
0.0
  0
VERTEX
  5
2CF
330
2CC
100
AcDbEntity
  8
KOTY
100
AcDbVertex
100
AcDb2dVertex
 10
77.50500215076264
 20
-80.60644936135881
 30
0.0
  0
VERTEX
  5
2D0
330
2CC
100
AcDbEntity
  8
KOTY
100
AcDbVertex
100
AcDb2dVertex
 10
77.2824489824155
 20
-80.78576658136606
 30
0.0
  0
VERTEX
  5
2D1
330
2CC
100
AcDbEntity
  8
KOTY
100
AcDbVertex
100
AcDb2dVertex
 10
77.03474661702604
 20
-80.93097735606935
 30
0.0
  0
VERTEX
  5
2D2
330
2CC
100
AcDbEntity
  8
KOTY
100
AcDbVertex
100
AcDb2dVertex
 10
76.76223956414277
 20
-81.04208168546864
 30
0.0
  0
VERTEX
  5
2D3
330
2CC
100
AcDbEntity
  8
KOTY
100
AcDbVertex
100
AcDb2dVertex
 10
76.76223956414277
 20
-80.52049422900183
 30
0.0
  0
VERTEX
  5
2D4
330
2CC
100
AcDbEntity
  8
KOTY
100
AcDbVertex
100
AcDb2dVertex
 10
76.99719507623682
 20
-80.4140407785076
 30
0.0
  0
VERTEX
  5
2D5
330
2CC
100
AcDbEntity
  8
KOTY
100
AcDbVertex
100
AcDb2dVertex
 10
77.25144312304825
 20
-80.24195825901937
 30
0.0
  0
VERTEX
  5
2D6
330
2CC
100
AcDbEntity
  8
KOTY
100
AcDbVertex
100
AcDb2dVertex
 10
77.47382403662112
 20
-80.01854381680093
 30
0.0
  0
VERTEX
  5
2D7
330
2CC
100
AcDbEntity
  8
KOTY
100
AcDbVertex
100
AcDb2dVertex
 10
77.613522658548
 20
-79.7610229292785
 30
0.0
  0
VERTEX
  5
2D8
330
2CC
100
AcDbEntity
  8
KOTY
100
AcDbVertex
100
AcDb2dVertex
 10
78.07998858725084
 20
-79.7610229292785
 30
0.0
  0
VERTEX
  5
2D9
330
2CC
100
AcDbEntity
  8
KOTY
100
AcDbVertex
100
AcDb2dVertex
 10
78.07998858725084
 20
-82.77358667635522
 30
0.0
  0
SEQEND
  5
2DA
330
2CC
100
AcDbEntity
  8
KOTY
  0
HATCH
  5
2DB
330
22F
100
AcDbEntity
  8
KOTY
 62
     7
100
AcDbHatch
 10
0.0
 20
0.0
 30
0.0
210
0.0
220
0.0
230
1.0
  2
SOLID
 70
     1
 71
     0
 91
        1
 92
        1
 93
       12
 72
     1
 10
78.07998858725084
 20
-82.77358667635522
 11
77.50500215076264
 21
-82.77358667635522
 72
     1
 10
77.50500215076264
 20
-82.77358667635522
 11
77.50500215076264
 21
-80.60644936135881
 72
     1
 10
77.50500215076264
 20
-80.60644936135881
 11
77.2824489824155
 21
-80.78576658136606
 72
     1
 10
77.2824489824155
 20
-80.78576658136606
 11
77.03474661702604
 21
-80.93097735606935
 72
     1
 10
77.03474661702604
 20
-80.93097735606935
 11
76.76223956414277
 21
-81.04208168546864
 72
     1
 10
76.76223956414277
 20
-81.04208168546864
 11
76.76223956414277
 21
-80.52049422900183
 72
     1
 10
76.76223956414277
 20
-80.52049422900183
 11
76.99719507623682
 21
-80.4140407785076
 72
     1
 10
76.99719507623682
 20
-80.4140407785076
 11
77.25144312304825
 21
-80.24195825901937
 72
     1
 10
77.25144312304825
 20
-80.24195825901937
 11
77.47382403662112
 21
-80.01854381680093
 72
     1
 10
77.47382403662112
 20
-80.01854381680093
 11
77.613522658548
 21
-79.7610229292785
 72
     1
 10
77.613522658548
 20
-79.7610229292785
 11
78.07998858725084
 21
-79.7610229292785
 72
     1
 10
78.07998858725084
 20
-79.7610229292785
 11
78.07998858725084
 21
-82.77358667635522
 97
        0
 75
     0
 76
     1
 98
        0
  0
POLYLINE
  5
2DC
330
22F
100
AcDbEntity
  8
KOTY
100
AcDb2dPolyline
 66
     1
 10
0.0
 20
0.0
 30
0.0
  0
VERTEX
  5
2DD
330
2DC
100
AcDbEntity
  8
KOTY
100
AcDbVertex
100
AcDb2dVertex
 10
79.91157360198392
 20
-80.23799639921134
 30
0.0
  0
VERTEX
  5
2DE
330
2DC
100
AcDbEntity
  8
KOTY
100
AcDbVertex
100
AcDb2dVertex
 10
79.72553844578043
 20
-80.30552027072224
 30
0.0
  0
VERTEX
  5
2DF
330
2DC
100
AcDbEntity
  8
KOTY
100
AcDbVertex
100
AcDb2dVertex
 10
79.5984144223747
 20
-80.54271509488169
 30
0.0
  0
VERTEX
  5
2E0
330
2DC
100
AcDbEntity
  8
KOTY
100
AcDbVertex
100
AcDb2dVertex
 10
79.5653415057163
 20
-80.7254774103742
 30
0.0
  0
VERTEX
  5
2E1
330
2DC
100
AcDbEntity
  8
KOTY
100
AcDbVertex
100
AcDb2dVertex
 10
79.54587671622464
 20
-80.97593585215185
 30
0.0
  0
VERTEX
  5
2E2
330
2DC
100
AcDbEntity
  8
KOTY
100
AcDbVertex
100
AcDb2dVertex
 10
79.53933103480267
 20
-81.29391816544042
 30
0.0
  0
VERTEX
  5
2E3
330
2DC
100
AcDbEntity
  8
KOTY
100
AcDbVertex
100
AcDb2dVertex
 10
79.54501544235333
 20
-81.60931665711503
 30
0.0
  0
VERTEX
  5
2E4
330
2DC
100
AcDbEntity
  8
KOTY
100
AcDbVertex
100
AcDb2dVertex
 10
79.56275768410237
 20
-81.85167912450237
 30
0.0
  0
VERTEX
  5
2E5
330
2DC
100
AcDbEntity
  8
KOTY
100
AcDbVertex
100
AcDb2dVertex
 10
79.59238550527552
 20
-82.0204888032796
 30
0.0
  0
VERTEX
  5
2E6
330
2DC
100
AcDbEntity
  8
KOTY
100
AcDbVertex
100
AcDb2dVertex
 10
79.72553844578043
 20
-82.28231606015859
 30
0.0
  0
VERTEX
  5
2E7
330
2DC
100
AcDbEntity
  8
KOTY
100
AcDbVertex
100
AcDb2dVertex
 10
79.91157360198392
 20
-82.3479451291526
 30
0.0
  0
VERTEX
  5
2E8
330
2DC
100
AcDbEntity
  8
KOTY
100
AcDbVertex
100
AcDb2dVertex
 10
80.09778101296168
 20
-82.28231606015859
 30
0.0
  0
VERTEX
  5
2E9
330
2DC
100
AcDbEntity
  8
KOTY
100
AcDbVertex
100
AcDb2dVertex
 10
80.22473278159313
 20
-82.04305417870799
 30
0.0
  0
VERTEX
  5
2EA
330
2DC
100
AcDbEntity
  8
KOTY
100
AcDbVertex
100
AcDb2dVertex
 10
80.25763344347726
 20
-81.86149764663533
 30
0.0
  0
VERTEX
  5
2EB
330
2DC
100
AcDbEntity
  8
KOTY
100
AcDbVertex
100
AcDb2dVertex
 10
80.2776149972917
 20
-81.61190047872897
 30
0.0
  0
VERTEX
  5
2EC
330
2DC
100
AcDbEntity
  8
KOTY
100
AcDbVertex
100
AcDb2dVertex
 10
80.28398842393942
 20
-81.29391816544042
 30
0.0
  0
VERTEX
  5
2ED
330
2DC
100
AcDbEntity
  8
KOTY
100
AcDbVertex
100
AcDb2dVertex
 10
80.27795950684023
 20
-80.97886418331431
 30
0.0
  0
VERTEX
  5
2EE
330
2DC
100
AcDbEntity
  8
KOTY
100
AcDbVertex
100
AcDb2dVertex
 10
80.2602172650912
 20
-80.73753524457257
 30
0.0
  0
VERTEX
  5
2EF
330
2DC
100
AcDbEntity
  8
KOTY
100
AcDbVertex
100
AcDb2dVertex
 10
80.23093395346658
 20
-80.56958683966664
 30
0.0
  0
VERTEX
  5
2F0
330
2DC
100
AcDbEntity
  8
KOTY
100
AcDbVertex
100
AcDb2dVertex
 10
80.09571395567052
 20
-80.30552027072224
 30
0.0
  0
VERTEX
  5
2F1
330
2DC
100
AcDbEntity
  8
KOTY
100
AcDbVertex
100
AcDb2dVertex
 10
79.91157360198392
 20
-80.23799639921134
 30
0.0
  0
SEQEND
  5
2F2
330
2DC
100
AcDbEntity
  8
KOTY
  0
POLYLINE
  5
2F3
330
22F
100
AcDbEntity
  8
KOTY
100
AcDb2dPolyline
 66
     1
 10
0.0
 20
0.0
 30
0.0
  0
VERTEX
  5
2F4
330
2F3
100
AcDbEntity
  8
KOTY
100
AcDbVertex
100
AcDb2dVertex
 10
79.91157360198392
 20
-79.7610229292785
 30
0.0
  0
VERTEX
  5
2F5
330
2F3
100
AcDbEntity
  8
KOTY
100
AcDbVertex
100
AcDb2dVertex
 10
80.1808078141562
 20
-79.79564613890525
 30
0.0
  0
VERTEX
  5
2F6
330
2F3
100
AcDbEntity
  8
KOTY
100
AcDbVertex
100
AcDb2dVertex
 10
80.40801186140841
 20
-79.89951576778554
 30
0.0
  0
VERTEX
  5
2F7
330
2F3
100
AcDbEntity
  8
KOTY
100
AcDbVertex
100
AcDb2dVertex
 10
80.59301348896633
 20
-80.07228730637082
 30
0.0
  0
VERTEX
  5
2F8
330
2F3
100
AcDbEntity
  8
KOTY
100
AcDbVertex
100
AcDb2dVertex
 10
80.72117104101763
 20
-80.28691675510188
 30
0.0
  0
VERTEX
  5
2F9
330
2F3
100
AcDbEntity
  8
KOTY
100
AcDbVertex
100
AcDb2dVertex
 10
80.81263832615102
 20
-80.56183537482482
 30
0.0
  0
VERTEX
  5
2FA
330
2F3
100
AcDbEntity
  8
KOTY
100
AcDbVertex
100
AcDb2dVertex
 10
80.86758759914075
 20
-80.89738767508815
 30
0.0
  0
VERTEX
  5
2FB
330
2F3
100
AcDbEntity
  8
KOTY
100
AcDbVertex
100
AcDb2dVertex
 10
80.88567435043831
 20
-81.29391816544042
 30
0.0
  0
VERTEX
  5
2FC
330
2F3
100
AcDbEntity
  8
KOTY
100
AcDbVertex
100
AcDb2dVertex
 10
80.86707083481795
 20
-81.68958738192136
 30
0.0
  0
VERTEX
  5
2FD
330
2F3
100
AcDbEntity
  8
KOTY
100
AcDbVertex
100
AcDb2dVertex
 10
80.81194930705396
 20
-82.02565644650748
 30
0.0
  0
VERTEX
  5
2FE
330
2F3
100
AcDbEntity
  8
KOTY
100
AcDbVertex
100
AcDb2dVertex
 10
80.71996525759779
 20
-82.30160859487599
 30
0.0
  0
VERTEX
  5
2FF
330
2F3
100
AcDbEntity
  8
KOTY
100
AcDbVertex
100
AcDb2dVertex
 10
80.59094643167518
 20
-82.51761608180115
 30
0.0
  0
VERTEX
  5
300
330
2F3
100
AcDbEntity
  8
KOTY
100
AcDbVertex
100
AcDb2dVertex
 10
80.4071505875371
 20
-82.68832056309529
 30
0.0
  0
VERTEX
  5
301
330
2F3
100
AcDbEntity
  8
KOTY
100
AcDbVertex
100
AcDb2dVertex
 10
80.1808078141562
 20
-82.79046764423295
 30
0.0
  0
VERTEX
  5
302
330
2F3
100
AcDbEntity
  8
KOTY
100
AcDbVertex
100
AcDb2dVertex
 10
79.91157360198392
 20
-82.82457408953691
 30
0.0
  0
VERTEX
  5
303
330
2F3
100
AcDbEntity
  8
KOTY
100
AcDbVertex
100
AcDb2dVertex
 10
79.63854978477787
 20
-82.78736705829621
 30
0.0
  0
VERTEX
  5
304
330
2F3
100
AcDbEntity
  8
KOTY
100
AcDbVertex
100
AcDb2dVertex
 10
79.4032497631353
 20
-82.67557370979986
 30
0.0
  0
VERTEX
  5
305
330
2F3
100
AcDbEntity
  8
KOTY
100
AcDbVertex
100
AcDb2dVertex
 10
79.20567353705623
 20
-82.48902178927358
 30
0.0
  0
VERTEX
  5
306
330
2F3
100
AcDbEntity
  8
KOTY
100
AcDbVertex
100
AcDb2dVertex
 10
79.0881957810092
 20
-82.2873114486122
 30
0.0
  0
VERTEX
  5
307
330
2F3
100
AcDbEntity
  8
KOTY
100
AcDbVertex
100
AcDb2dVertex
 10
79.00447996071763
 20
-82.01979978418255
 30
0.0
  0
VERTEX
  5
308
330
2F3
100
AcDbEntity
  8
KOTY
100
AcDbVertex
100
AcDb2dVertex
 10
78.95435382140725
 20
-81.68665905075889
 30
0.0
  0
VERTEX
  5
309
330
2F3
100
AcDbEntity
  8
KOTY
100
AcDbVertex
100
AcDb2dVertex
 10
78.93730059875526
 20
-81.28788924834123
 30
0.0
  0
VERTEX
  5
30A
330
2F3
100
AcDbEntity
  8
KOTY
100
AcDbVertex
100
AcDb2dVertex
 10
78.95590411437561
 20
-80.8939425796029
 30
0.0
  0
VERTEX
  5
30B
330
2F3
100
AcDbEntity
  8
KOTY
100
AcDbVertex
100
AcDb2dVertex
 10
79.01119789691387
 20
-80.55925155321088
 30
0.0
  0
VERTEX
  5
30C
330
2F3
100
AcDbEntity
  8
KOTY
100
AcDbVertex
100
AcDb2dVertex
 10
79.10318194637004
 20
-80.28416067871369
 30
0.0
  0
VERTEX
  5
30D
330
2F3
100
AcDbEntity
  8
KOTY
100
AcDbVertex
100
AcDb2dVertex
 10
79.23237302706691
 20
-80.06815319178853
 30
0.0
  0
VERTEX
  5
30E
330
2F3
100
AcDbEntity
  8
KOTY
100
AcDbVertex
100
AcDb2dVertex
 10
79.4156521068822
 20
-79.89762096526866
 30
0.0
  0
VERTEX
  5
30F
330
2F3
100
AcDbEntity
  8
KOTY
100
AcDbVertex
100
AcDb2dVertex
 10
79.64216713503738
 20
-79.79530162935673
 30
0.0
  0
VERTEX
  5
310
330
2F3
100
AcDbEntity
  8
KOTY
100
AcDbVertex
100
AcDb2dVertex
 10
79.91157360198392
 20
-79.7610229292785
 30
0.0
  0
SEQEND
  5
311
330
2F3
100
AcDbEntity
  8
KOTY
  0
HATCH
  5
312
330
22F
100
AcDbEntity
  8
KOTY
 62
     7
100
AcDbHatch
 10
0.0
 20
0.0
 30
0.0
210
0.0
220
0.0
230
1.0
  2
SOLID
 70
     1
 71
     0
 91
        2
 92
        1
 93
       20
 72
     1
 10
79.91157360198392
 20
-80.23799639921134
 11
79.72553844578043
 21
-80.30552027072224
 72
     1
 10
79.72553844578043
 20
-80.30552027072224
 11
79.5984144223747
 21
-80.54271509488169
 72
     1
 10
79.5984144223747
 20
-80.54271509488169
 11
79.5653415057163
 21
-80.7254774103742
 72
     1
 10
79.5653415057163
 20
-80.7254774103742
 11
79.54587671622464
 21
-80.97593585215185
 72
     1
 10
79.54587671622464
 20
-80.97593585215185
 11
79.53933103480267
 21
-81.29391816544042
 72
     1
 10
79.53933103480267
 20
-81.29391816544042
 11
79.54501544235333
 21
-81.60931665711503
 72
     1
 10
79.54501544235333
 20
-81.60931665711503
 11
79.56275768410237
 21
-81.85167912450237
 72
     1
 10
79.56275768410237
 20
-81.85167912450237
 11
79.59238550527552
 21
-82.0204888032796
 72
     1
 10
79.59238550527552
 20
-82.0204888032796
 11
79.72553844578043
 21
-82.28231606015859
 72
     1
 10
79.72553844578043
 20
-82.28231606015859
 11
79.91157360198392
 21
-82.3479451291526
 72
     1
 10
79.91157360198392
 20
-82.3479451291526
 11
80.09778101296168
 21
-82.28231606015859
 72
     1
 10
80.09778101296168
 20
-82.28231606015859
 11
80.22473278159313
 21
-82.04305417870799
 72
     1
 10
80.22473278159313
 20
-82.04305417870799
 11
80.25763344347726
 21
-81.86149764663533
 72
     1
 10
80.25763344347726
 20
-81.86149764663533
 11
80.2776149972917
 21
-81.61190047872897
 72
     1
 10
80.2776149972917
 20
-81.61190047872897
 11
80.28398842393942
 21
-81.29391816544042
 72
     1
 10
80.28398842393942
 20
-81.29391816544042
 11
80.27795950684023
 21
-80.97886418331431
 72
     1
 10
80.27795950684023
 20
-80.97886418331431
 11
80.2602172650912
 21
-80.73753524457257
 72
     1
 10
80.2602172650912
 20
-80.73753524457257
 11
80.23093395346658
 21
-80.56958683966664
 72
     1
 10
80.23093395346658
 20
-80.56958683966664
 11
80.09571395567052
 21
-80.30552027072224
 72
     1
 10
80.09571395567052
 20
-80.30552027072224
 11
79.91157360198392
 21
-80.23799639921134
 97
        0
 92
        1
 93
       28
 72
     1
 10
79.91157360198392
 20
-79.7610229292785
 11
80.1808078141562
 21
-79.79564613890525
 72
     1
 10
80.1808078141562
 20
-79.79564613890525
 11
80.40801186140841
 21
-79.89951576778554
 72
     1
 10
80.40801186140841
 20
-79.89951576778554
 11
80.59301348896633
 21
-80.07228730637082
 72
     1
 10
80.59301348896633
 20
-80.07228730637082
 11
80.72117104101763
 21
-80.28691675510188
 72
     1
 10
80.72117104101763
 20
-80.28691675510188
 11
80.81263832615102
 21
-80.56183537482482
 72
     1
 10
80.81263832615102
 20
-80.56183537482482
 11
80.86758759914075
 21
-80.89738767508815
 72
     1
 10
80.86758759914075
 20
-80.89738767508815
 11
80.88567435043831
 21
-81.29391816544042
 72
     1
 10
80.88567435043831
 20
-81.29391816544042
 11
80.86707083481795
 21
-81.68958738192136
 72
     1
 10
80.86707083481795
 20
-81.68958738192136
 11
80.81194930705396
 21
-82.02565644650748
 72
     1
 10
80.81194930705396
 20
-82.02565644650748
 11
80.71996525759779
 21
-82.30160859487599
 72
     1
 10
80.71996525759779
 20
-82.30160859487599
 11
80.59094643167518
 21
-82.51761608180115
 72
     1
 10
80.59094643167518
 20
-82.51761608180115
 11
80.4071505875371
 21
-82.68832056309529
 72
     1
 10
80.4071505875371
 20
-82.68832056309529
 11
80.1808078141562
 21
-82.79046764423295
 72
     1
 10
80.1808078141562
 20
-82.79046764423295
 11
79.91157360198392
 21
-82.82457408953691
 72
     1
 10
79.91157360198392
 20
-82.82457408953691
 11
79.63854978477787
 21
-82.78736705829621
 72
     1
 10
79.63854978477787
 20
-82.78736705829621
 11
79.4032497631353
 21
-82.67557370979986
 72
     1
 10
79.4032497631353
 20
-82.67557370979986
 11
79.20567353705623
 21
-82.48902178927358
 72
     1
 10
79.20567353705623
 20
-82.48902178927358
 11
79.0881957810092
 21
-82.2873114486122
 72
     1
 10
79.0881957810092
 20
-82.2873114486122
 11
79.00447996071763
 21
-82.01979978418255
 72
     1
 10
79.00447996071763
 20
-82.01979978418255
 11
78.95435382140725
 21
-81.68665905075889
 72
     1
 10
78.95435382140725
 20
-81.68665905075889
 11
78.93730059875526
 21
-81.28788924834123
 72
     1
 10
78.93730059875526
 20
-81.28788924834123
 11
78.95590411437561
 21
-80.8939425796029
 72
     1
 10
78.95590411437561
 20
-80.8939425796029
 11
79.01119789691387
 21
-80.55925155321088
 72
     1
 10
79.01119789691387
 20
-80.55925155321088
 11
79.10318194637004
 21
-80.28416067871369
 72
     1
 10
79.10318194637004
 20
-80.28416067871369
 11
79.23237302706691
 21
-80.06815319178853
 72
     1
 10
79.23237302706691
 20
-80.06815319178853
 11
79.4156521068822
 21
-79.89762096526866
 72
     1
 10
79.4156521068822
 20
-79.89762096526866
 11
79.64216713503738
 21
-79.79530162935673
 72
     1
 10
79.64216713503738
 20
-79.79530162935673
 11
79.91157360198392
 21
-79.7610229292785
 97
        0
 75
     0
 76
     1
 98
        0
  0
POLYLINE
  5
313
330
22F
100
AcDbEntity
  8
KOTY
100
AcDb2dPolyline
 66
     1
 10
0.0
 20
0.0
 30
0.0
  0
VERTEX
  5
314
330
313
100
AcDbEntity
  8
KOTY
100
AcDbVertex
100
AcDb2dVertex
 10
82.2423529525297
 20
-80.23799639921134
 30
0.0
  0
VERTEX
  5
315
330
313
100
AcDbEntity
  8
KOTY
100
AcDbVertex
100
AcDb2dVertex
 10
82.05614554155194
 20
-80.30552027072224
 30
0.0
  0
VERTEX
  5
316
330
313
100
AcDbEntity
  8
KOTY
100
AcDbVertex
100
AcDb2dVertex
 10
81.92919377292048
 20
-80.54271509488169
 30
0.0
  0
VERTEX
  5
317
330
313
100
AcDbEntity
  8
KOTY
100
AcDbVertex
100
AcDb2dVertex
 10
81.89629311103634
 20
-80.7254774103742
 30
0.0
  0
VERTEX
  5
318
330
313
100
AcDbEntity
  8
KOTY
100
AcDbVertex
100
AcDb2dVertex
 10
81.87665606677042
 20
-80.97593585215185
 30
0.0
  0
VERTEX
  5
319
330
313
100
AcDbEntity
  8
KOTY
100
AcDbVertex
100
AcDb2dVertex
 10
81.87011038534845
 20
-81.29391816544042
 30
0.0
  0
VERTEX
  5
31A
330
313
100
AcDbEntity
  8
KOTY
100
AcDbVertex
100
AcDb2dVertex
 10
81.87579479289911
 20
-81.60931665711503
 30
0.0
  0
VERTEX
  5
31B
330
313
100
AcDbEntity
  8
KOTY
100
AcDbVertex
100
AcDb2dVertex
 10
81.8937092894224
 20
-81.85167912450237
 30
0.0
  0
VERTEX
  5
31C
330
313
100
AcDbEntity
  8
KOTY
100
AcDbVertex
100
AcDb2dVertex
 10
81.9231648558213
 20
-82.0204888032796
 30
0.0
  0
VERTEX
  5
31D
330
313
100
AcDbEntity
  8
KOTY
100
AcDbVertex
100
AcDb2dVertex
 10
82.05614554155194
 20
-82.28231606015859
 30
0.0
  0
VERTEX
  5
31E
330
313
100
AcDbEntity
  8
KOTY
100
AcDbVertex
100
AcDb2dVertex
 10
82.2423529525297
 20
-82.3479451291526
 30
0.0
  0
VERTEX
  5
31F
330
313
100
AcDbEntity
  8
KOTY
100
AcDbVertex
100
AcDb2dVertex
 10
82.42856036350744
 20
-82.28231606015859
 30
0.0
  0
VERTEX
  5
320
330
313
100
AcDbEntity
  8
KOTY
100
AcDbVertex
100
AcDb2dVertex
 10
82.5555121321389
 20
-82.04305417870799
 30
0.0
  0
VERTEX
  5
321
330
313
100
AcDbEntity
  8
KOTY
100
AcDbVertex
100
AcDb2dVertex
 10
82.5885850487973
 20
-81.86149764663533
 30
0.0
  0
VERTEX
  5
322
330
313
100
AcDbEntity
  8
KOTY
100
AcDbVertex
100
AcDb2dVertex
 10
82.60839434783749
 20
-81.61190047872897
 30
0.0
  0
VERTEX
  5
323
330
313
100
AcDbEntity
  8
KOTY
100
AcDbVertex
100
AcDb2dVertex
 10
82.61511228403373
 20
-81.29391816544042
 30
0.0
  0
VERTEX
  5
324
330
313
100
AcDbEntity
  8
KOTY
100
AcDbVertex
100
AcDb2dVertex
 10
82.60908336693454
 20
-80.97886418331431
 30
0.0
  0
VERTEX
  5
325
330
313
100
AcDbEntity
  8
KOTY
100
AcDbVertex
100
AcDb2dVertex
 10
82.59134112518551
 20
-80.73753524457257
 30
0.0
  0
VERTEX
  5
326
330
313
100
AcDbEntity
  8
KOTY
100
AcDbVertex
100
AcDb2dVertex
 10
82.56171330401236
 20
-80.56958683966664
 30
0.0
  0
VERTEX
  5
327
330
313
100
AcDbEntity
  8
KOTY
100
AcDbVertex
100
AcDb2dVertex
 10
82.4264933062163
 20
-80.30552027072224
 30
0.0
  0
VERTEX
  5
328
330
313
100
AcDbEntity
  8
KOTY
100
AcDbVertex
100
AcDb2dVertex
 10
82.2423529525297
 20
-80.23799639921134
 30
0.0
  0
SEQEND
  5
329
330
313
100
AcDbEntity
  8
KOTY
  0
POLYLINE
  5
32A
330
22F
100
AcDbEntity
  8
KOTY
100
AcDb2dPolyline
 66
     1
 10
0.0
 20
0.0
 30
0.0
  0
VERTEX
  5
32B
330
32A
100
AcDbEntity
  8
KOTY
100
AcDbVertex
100
AcDb2dVertex
 10
82.2423529525297
 20
-79.7610229292785
 30
0.0
  0
VERTEX
  5
32C
330
32A
100
AcDbEntity
  8
KOTY
100
AcDbVertex
100
AcDb2dVertex
 10
82.51193167425049
 20
-79.79564613890525
 30
0.0
  0
VERTEX
  5
32D
330
32A
100
AcDbEntity
  8
KOTY
100
AcDbVertex
100
AcDb2dVertex
 10
82.73913572150272
 20
-79.89951576778554
 30
0.0
  0
VERTEX
  5
32E
330
32A
100
AcDbEntity
  8
KOTY
100
AcDbVertex
100
AcDb2dVertex
 10
82.92379283951212
 20
-80.07228730637082
 30
0.0
  0
VERTEX
  5
32F
330
32A
100
AcDbEntity
  8
KOTY
100
AcDbVertex
100
AcDb2dVertex
 10
83.05177813678914
 20
-80.28691675510188
 30
0.0
  0
VERTEX
  5
330
330
32A
100
AcDbEntity
  8
KOTY
100
AcDbVertex
100
AcDb2dVertex
 10
83.14341767669679
 20
-80.56183537482482
 30
0.0
  0
VERTEX
  5
331
330
32A
100
AcDbEntity
  8
KOTY
100
AcDbVertex
100
AcDb2dVertex
 10
83.19836694968652
 20
-80.89738767508815
 30
0.0
  0
VERTEX
  5
332
330
32A
100
AcDbEntity
  8
KOTY
100
AcDbVertex
100
AcDb2dVertex
 10
83.21662595575835
 20
-81.29391816544042
 30
0.0
  0
VERTEX
  5
333
330
32A
100
AcDbEntity
  8
KOTY
100
AcDbVertex
100
AcDb2dVertex
 10
83.198022440138
 20
-81.68958738192136
 30
0.0
  0
VERTEX
  5
334
330
32A
100
AcDbEntity
  8
KOTY
100
AcDbVertex
100
AcDb2dVertex
 10
83.142900912374
 20
-82.02565644650748
 30
0.0
  0
VERTEX
  5
335
330
32A
100
AcDbEntity
  8
KOTY
100
AcDbVertex
100
AcDb2dVertex
 10
83.05074460814357
 20
-82.30160859487599
 30
0.0
  0
VERTEX
  5
336
330
32A
100
AcDbEntity
  8
KOTY
100
AcDbVertex
100
AcDb2dVertex
 10
82.92172578222096
 20
-82.51761608180115
 30
0.0
  0
VERTEX
  5
337
330
32A
100
AcDbEntity
  8
KOTY
100
AcDbVertex
100
AcDb2dVertex
 10
82.73827444763141
 20
-82.68832056309529
 30
0.0
  0
VERTEX
  5
338
330
32A
100
AcDbEntity
  8
KOTY
100
AcDbVertex
100
AcDb2dVertex
 10
82.51175941947623
 20
-82.79046764423295
 30
0.0
  0
VERTEX
  5
339
330
32A
100
AcDbEntity
  8
KOTY
100
AcDbVertex
100
AcDb2dVertex
 10
82.2423529525297
 20
-82.82457408953691
 30
0.0
  0
VERTEX
  5
33A
330
32A
100
AcDbEntity
  8
KOTY
100
AcDbVertex
100
AcDb2dVertex
 10
81.96932913532365
 20
-82.78736705829621
 30
0.0
  0
VERTEX
  5
33B
330
32A
100
AcDbEntity
  8
KOTY
100
AcDbVertex
100
AcDb2dVertex
 10
81.73402911368107
 20
-82.67557370979986
 30
0.0
  0
VERTEX
  5
33C
330
32A
100
AcDbEntity
  8
KOTY
100
AcDbVertex
100
AcDb2dVertex
 10
81.536452887602
 20
-82.48902178927358
 30
0.0
  0
VERTEX
  5
33D
330
32A
100
AcDbEntity
  8
KOTY
100
AcDbVertex
100
AcDb2dVertex
 10
81.41931964110351
 20
-82.2873114486122
 30
0.0
  0
VERTEX
  5
33E
330
32A
100
AcDbEntity
  8
KOTY
100
AcDbVertex
100
AcDb2dVertex
 10
81.33560382081194
 20
-82.01979978418255
 30
0.0
  0
VERTEX
  5
33F
330
32A
100
AcDbEntity
  8
KOTY
100
AcDbVertex
100
AcDb2dVertex
 10
81.28513317195302
 20
-81.68665905075889
 30
0.0
  0
VERTEX
  5
340
330
32A
100
AcDbEntity
  8
KOTY
100
AcDbVertex
100
AcDb2dVertex
 10
81.26842445884957
 20
-81.28788924834123
 30
0.0
  0
VERTEX
  5
341
330
32A
100
AcDbEntity
  8
KOTY
100
AcDbVertex
100
AcDb2dVertex
 10
81.28668346492138
 20
-80.8939425796029
 30
0.0
  0
VERTEX
  5
342
330
32A
100
AcDbEntity
  8
KOTY
100
AcDbVertex
100
AcDb2dVertex
 10
81.34197724745965
 20
-80.55925155321088
 30
0.0
  0
VERTEX
  5
343
330
32A
100
AcDbEntity
  8
KOTY
100
AcDbVertex
100
AcDb2dVertex
 10
81.43396129691583
 20
-80.28416067871369
 30
0.0
  0
VERTEX
  5
344
330
32A
100
AcDbEntity
  8
KOTY
100
AcDbVertex
100
AcDb2dVertex
 10
81.56298012283843
 20
-80.06815319178853
 30
0.0
  0
VERTEX
  5
345
330
32A
100
AcDbEntity
  8
KOTY
100
AcDbVertex
100
AcDb2dVertex
 10
81.74660371220224
 20
-79.89762096526866
 30
0.0
  0
VERTEX
  5
346
330
32A
100
AcDbEntity
  8
KOTY
100
AcDbVertex
100
AcDb2dVertex
 10
81.97294648558315
 20
-79.79530162935673
 30
0.0
  0
VERTEX
  5
347
330
32A
100
AcDbEntity
  8
KOTY
100
AcDbVertex
100
AcDb2dVertex
 10
82.2423529525297
 20
-79.7610229292785
 30
0.0
  0
SEQEND
  5
348
330
32A
100
AcDbEntity
  8
KOTY
  0
HATCH
  5
349
330
22F
100
AcDbEntity
  8
KOTY
 62
     7
100
AcDbHatch
 10
0.0
 20
0.0
 30
0.0
210
0.0
220
0.0
230
1.0
  2
SOLID
 70
     1
 71
     0
 91
        2
 92
        1
 93
       20
 72
     1
 10
82.2423529525297
 20
-80.23799639921134
 11
82.05614554155194
 21
-80.30552027072224
 72
     1
 10
82.05614554155194
 20
-80.30552027072224
 11
81.92919377292048
 21
-80.54271509488169
 72
     1
 10
81.92919377292048
 20
-80.54271509488169
 11
81.89629311103634
 21
-80.7254774103742
 72
     1
 10
81.89629311103634
 20
-80.7254774103742
 11
81.87665606677042
 21
-80.97593585215185
 72
     1
 10
81.87665606677042
 20
-80.97593585215185
 11
81.87011038534845
 21
-81.29391816544042
 72
     1
 10
81.87011038534845
 20
-81.29391816544042
 11
81.87579479289911
 21
-81.60931665711503
 72
     1
 10
81.87579479289911
 20
-81.60931665711503
 11
81.8937092894224
 21
-81.85167912450237
 72
     1
 10
81.8937092894224
 20
-81.85167912450237
 11
81.9231648558213
 21
-82.0204888032796
 72
     1
 10
81.9231648558213
 20
-82.0204888032796
 11
82.05614554155194
 21
-82.28231606015859
 72
     1
 10
82.05614554155194
 20
-82.28231606015859
 11
82.2423529525297
 21
-82.3479451291526
 72
     1
 10
82.2423529525297
 20
-82.3479451291526
 11
82.42856036350744
 21
-82.28231606015859
 72
     1
 10
82.42856036350744
 20
-82.28231606015859
 11
82.5555121321389
 21
-82.04305417870799
 72
     1
 10
82.5555121321389
 20
-82.04305417870799
 11
82.5885850487973
 21
-81.86149764663533
 72
     1
 10
82.5885850487973
 20
-81.86149764663533
 11
82.60839434783749
 21
-81.61190047872897
 72
     1
 10
82.60839434783749
 20
-81.61190047872897
 11
82.61511228403373
 21
-81.29391816544042
 72
     1
 10
82.61511228403373
 20
-81.29391816544042
 11
82.60908336693454
 21
-80.97886418331431
 72
     1
 10
82.60908336693454
 20
-80.97886418331431
 11
82.59134112518551
 21
-80.73753524457257
 72
     1
 10
82.59134112518551
 20
-80.73753524457257
 11
82.56171330401236
 21
-80.56958683966664
 72
     1
 10
82.56171330401236
 20
-80.56958683966664
 11
82.4264933062163
 21
-80.30552027072224
 72
     1
 10
82.4264933062163
 20
-80.30552027072224
 11
82.2423529525297
 21
-80.23799639921134
 97
        0
 92
        1
 93
       28
 72
     1
 10
82.2423529525297
 20
-79.7610229292785
 11
82.51193167425049
 21
-79.79564613890525
 72
     1
 10
82.51193167425049
 20
-79.79564613890525
 11
82.73913572150272
 21
-79.89951576778554
 72
     1
 10
82.73913572150272
 20
-79.89951576778554
 11
82.92379283951212
 21
-80.07228730637082
 72
     1
 10
82.92379283951212
 20
-80.07228730637082
 11
83.05177813678914
 21
-80.28691675510188
 72
     1
 10
83.05177813678914
 20
-80.28691675510188
 11
83.14341767669679
 21
-80.56183537482482
 72
     1
 10
83.14341767669679
 20
-80.56183537482482
 11
83.19836694968652
 21
-80.89738767508815
 72
     1
 10
83.19836694968652
 20
-80.89738767508815
 11
83.21662595575835
 21
-81.29391816544042
 72
     1
 10
83.21662595575835
 20
-81.29391816544042
 11
83.198022440138
 21
-81.68958738192136
 72
     1
 10
83.198022440138
 20
-81.68958738192136
 11
83.142900912374
 21
-82.02565644650748
 72
     1
 10
83.142900912374
 20
-82.02565644650748
 11
83.05074460814357
 21
-82.30160859487599
 72
     1
 10
83.05074460814357
 20
-82.30160859487599
 11
82.92172578222096
 21
-82.51761608180115
 72
     1
 10
82.92172578222096
 20
-82.51761608180115
 11
82.73827444763141
 21
-82.68832056309529
 72
     1
 10
82.73827444763141
 20
-82.68832056309529
 11
82.51175941947623
 21
-82.79046764423295
 72
     1
 10
82.51175941947623
 20
-82.79046764423295
 11
82.2423529525297
 21
-82.82457408953691
 72
     1
 10
82.2423529525297
 20
-82.82457408953691
 11
81.96932913532365
 21
-82.78736705829621
 72
     1
 10
81.96932913532365
 20
-82.78736705829621
 11
81.73402911368107
 21
-82.67557370979986
 72
     1
 10
81.73402911368107
 20
-82.67557370979986
 11
81.536452887602
 21
-82.48902178927358
 72
     1
 10
81.536452887602
 20
-82.48902178927358
 11
81.41931964110351
 21
-82.2873114486122
 72
     1
 10
81.41931964110351
 20
-82.2873114486122
 11
81.33560382081194
 21
-82.01979978418255
 72
     1
 10
81.33560382081194
 20
-82.01979978418255
 11
81.28513317195302
 21
-81.68665905075889
 72
     1
 10
81.28513317195302
 20
-81.68665905075889
 11
81.26842445884957
 21
-81.28788924834123
 72
     1
 10
81.26842445884957
 20
-81.28788924834123
 11
81.28668346492138
 21
-80.8939425796029
 72
     1
 10
81.28668346492138
 20
-80.8939425796029
 11
81.34197724745965
 21
-80.55925155321088
 72
     1
 10
81.34197724745965
 20
-80.55925155321088
 11
81.43396129691583
 21
-80.28416067871369
 72
     1
 10
81.43396129691583
 20
-80.28416067871369
 11
81.56298012283843
 21
-80.06815319178853
 72
     1
 10
81.56298012283843
 20
-80.06815319178853
 11
81.74660371220224
 21
-79.89762096526866
 72
     1
 10
81.74660371220224
 20
-79.89762096526866
 11
81.97294648558315
 21
-79.79530162935673
 72
     1
 10
81.97294648558315
 20
-79.79530162935673
 11
82.2423529525297
 21
-79.7610229292785
 97
        0
 75
     0
 76
     1
 98
        0
  0
POLYLINE
  5
34A
330
22F
100
AcDbEntity
  8
KOTY
100
AcDb2dPolyline
 66
     1
 10
0.0
 20
0.0
 30
0.0
  0
VERTEX
  5
34B
330
34A
100
AcDbEntity
  8
KOTY
100
AcDbVertex
100
AcDb2dVertex
 10
84.352990701568
 20
-80.29535723904075
 30
0.0
  0
VERTEX
  5
34C
330
34A
100
AcDbEntity
  8
KOTY
100
AcDbVertex
100
AcDb2dVertex
 10
84.352990701568
 20
-79.90554468488473
 30
0.0
  0
VERTEX
  5
34D
330
34A
100
AcDbEntity
  8
KOTY
100
AcDbVertex
100
AcDb2dVertex
 10
83.96007756147526
 20
-79.90554468488473
 30
0.0
  0
VERTEX
  5
34E
330
34A
100
AcDbEntity
  8
KOTY
100
AcDbVertex
100
AcDb2dVertex
 10
83.96007756147526
 20
-79.63648272748672
 30
0.0
  0
VERTEX
  5
34F
330
34A
100
AcDbEntity
  8
KOTY
100
AcDbVertex
100
AcDb2dVertex
 10
84.352990701568
 20
-79.63648272748672
 30
0.0
  0
VERTEX
  5
350
330
34A
100
AcDbEntity
  8
KOTY
100
AcDbVertex
100
AcDb2dVertex
 10
84.352990701568
 20
-79.2466701733307
 30
0.0
  0
VERTEX
  5
351
330
34A
100
AcDbEntity
  8
KOTY
100
AcDbVertex
100
AcDb2dVertex
 10
84.61499021322126
 20
-79.2466701733307
 30
0.0
  0
VERTEX
  5
352
330
34A
100
AcDbEntity
  8
KOTY
100
AcDbVertex
100
AcDb2dVertex
 10
84.61499021322126
 20
-79.63648272748672
 30
0.0
  0
VERTEX
  5
353
330
34A
100
AcDbEntity
  8
KOTY
100
AcDbVertex
100
AcDb2dVertex
 10
85.00893688195957
 20
-79.63648272748672
 30
0.0
  0
VERTEX
  5
354
330
34A
100
AcDbEntity
  8
KOTY
100
AcDbVertex
100
AcDb2dVertex
 10
85.00893688195957
 20
-79.90554468488473
 30
0.0
  0
VERTEX
  5
355
330
34A
100
AcDbEntity
  8
KOTY
100
AcDbVertex
100
AcDb2dVertex
 10
84.61499021322126
 20
-79.90554468488473
 30
0.0
  0
VERTEX
  5
356
330
34A
100
AcDbEntity
  8
KOTY
100
AcDbVertex
100
AcDb2dVertex
 10
84.61499021322126
 20
-80.29535723904075
 30
0.0
  0
VERTEX
  5
357
330
34A
100
AcDbEntity
  8
KOTY
100
AcDbVertex
100
AcDb2dVertex
 10
84.352990701568
 20
-80.29535723904075
 30
0.0
  0
SEQEND
  5
358
330
34A
100
AcDbEntity
  8
KOTY
  0
HATCH
  5
359
330
22F
100
AcDbEntity
  8
KOTY
 62
     7
100
AcDbHatch
 10
0.0
 20
0.0
 30
0.0
210
0.0
220
0.0
230
1.0
  2
SOLID
 70
     1
 71
     0
 91
        1
 92
        1
 93
       12
 72
     1
 10
84.352990701568
 20
-80.29535723904075
 11
84.352990701568
 21
-79.90554468488473
 72
     1
 10
84.352990701568
 20
-79.90554468488473
 11
83.96007756147526
 21
-79.90554468488473
 72
     1
 10
83.96007756147526
 20
-79.90554468488473
 11
83.96007756147526
 21
-79.63648272748672
 72
     1
 10
83.96007756147526
 20
-79.63648272748672
 11
84.352990701568
 21
-79.63648272748672
 72
     1
 10
84.352990701568
 20
-79.63648272748672
 11
84.352990701568
 21
-79.2466701733307
 72
     1
 10
84.352990701568
 20
-79.2466701733307
 11
84.61499021322126
 21
-79.2466701733307
 72
     1
 10
84.61499021322126
 20
-79.2466701733307
 11
84.61499021322126
 21
-79.63648272748672
 72
     1
 10
84.61499021322126
 20
-79.63648272748672
 11
85.00893688195957
 21
-79.63648272748672
 72
     1
 10
85.00893688195957
 20
-79.63648272748672
 11
85.00893688195957
 21
-79.90554468488473
 72
     1
 10
85.00893688195957
 20
-79.90554468488473
 11
84.61499021322126
 21
-79.90554468488473
 72
     1
 10
84.61499021322126
 20
-79.90554468488473
 11
84.61499021322126
 21
-80.29535723904075
 72
     1
 10
84.61499021322126
 20
-80.29535723904075
 11
84.352990701568
 21
-80.29535723904075
 97
        0
 75
     0
 76
     1
 98
        0
  0
POLYLINE
  5
35A
330
22F
100
AcDbEntity
  8
KOTY
100
AcDb2dPolyline
 66
     1
 10
0.0
 20
0.0
 30
0.0
  0
VERTEX
  5
35B
330
35A
100
AcDbEntity
  8
KOTY
100
AcDbVertex
100
AcDb2dVertex
 10
85.19014890448372
 20
-80.12534177684367
 30
0.0
  0
VERTEX
  5
35C
330
35A
100
AcDbEntity
  8
KOTY
100
AcDbVertex
100
AcDb2dVertex
 10
85.47643633930798
 20
-80.09588621044479
 30
0.0
  0
VERTEX
  5
35D
330
35A
100
AcDbEntity
  8
KOTY
100
AcDbVertex
100
AcDb2dVertex
 10
85.54930010882101
 20
-80.25022648818397
 30
0.0
  0
VERTEX
  5
35E
330
35A
100
AcDbEntity
  8
KOTY
100
AcDbVertex
100
AcDb2dVertex
 10
85.68830971165085
 20
-80.30672605414208
 30
0.0
  0
VERTEX
  5
35F
330
35A
100
AcDbEntity
  8
KOTY
100
AcDbVertex
100
AcDb2dVertex
 10
85.84075518687315
 20
-80.23386228462904
 30
0.0
  0
VERTEX
  5
360
330
35A
100
AcDbEntity
  8
KOTY
100
AcDbVertex
100
AcDb2dVertex
 10
85.88760848547254
 20
-80.14187823517287
 30
0.0
  0
VERTEX
  5
361
330
35A
100
AcDbEntity
  8
KOTY
100
AcDbVertex
100
AcDb2dVertex
 10
85.90328366993043
 20
-80.012687154476
 30
0.0
  0
VERTEX
  5
362
330
35A
100
AcDbEntity
  8
KOTY
100
AcDbVertex
100
AcDb2dVertex
 10
85.88760848547254
 20
-79.89210881249225
 30
0.0
  0
VERTEX
  5
363
330
35A
100
AcDbEntity
  8
KOTY
100
AcDbVertex
100
AcDb2dVertex
 10
85.84075518687315
 20
-79.80632593490954
 30
0.0
  0
VERTEX
  5
364
330
35A
100
AcDbEntity
  8
KOTY
100
AcDbVertex
100
AcDb2dVertex
 10
85.68004148248625
 20
-79.73656275133322
 30
0.0
  0
VERTEX
  5
365
330
35A
100
AcDbEntity
  8
KOTY
100
AcDbVertex
100
AcDb2dVertex
 10
85.56273598121349
 20
-79.76412351521522
 30
0.0
  0
VERTEX
  5
366
330
35A
100
AcDbEntity
  8
KOTY
100
AcDbVertex
100
AcDb2dVertex
 10
85.4580050784619
 20
-79.84611678776417
 30
0.0
  0
VERTEX
  5
367
330
35A
100
AcDbEntity
  8
KOTY
100
AcDbVertex
100
AcDb2dVertex
 10
85.22494436888474
 20
-79.81218259723445
 30
0.0
  0
VERTEX
  5
368
330
35A
100
AcDbEntity
  8
KOTY
100
AcDbVertex
100
AcDb2dVertex
 10
85.37204994610491
 20
-79.03169621505111
 30
0.0
  0
VERTEX
  5
369
330
35A
100
AcDbEntity
  8
KOTY
100
AcDbVertex
100
AcDb2dVertex
 10
86.13238251969955
 20
-79.03169621505111
 30
0.0
  0
VERTEX
  5
36A
330
35A
100
AcDbEntity
  8
KOTY
100
AcDbVertex
100
AcDb2dVertex
 10
86.13238251969955
 20
-79.30093042722338
 30
0.0
  0
VERTEX
  5
36B
330
35A
100
AcDbEntity
  8
KOTY
100
AcDbVertex
100
AcDb2dVertex
 10
85.59012449032122
 20
-79.30093042722338
 30
0.0
  0
VERTEX
  5
36C
330
35A
100
AcDbEntity
  8
KOTY
100
AcDbVertex
100
AcDb2dVertex
 10
85.54482148469019
 20
-79.55552298358334
 30
0.0
  0
VERTEX
  5
36D
330
35A
100
AcDbEntity
  8
KOTY
100
AcDbVertex
100
AcDb2dVertex
 10
85.64197317737424
 20
-79.51952173576248
 30
0.0
  0
VERTEX
  5
36E
330
35A
100
AcDbEntity
  8
KOTY
100
AcDbVertex
100
AcDb2dVertex
 10
85.74153643689796
 20
-79.50763615633838
 30
0.0
  0
VERTEX
  5
36F
330
35A
100
AcDbEntity
  8
KOTY
100
AcDbVertex
100
AcDb2dVertex
 10
85.86245928843022
 20
-79.52279457647347
 30
0.0
  0
VERTEX
  5
370
330
35A
100
AcDbEntity
  8
KOTY
100
AcDbVertex
100
AcDb2dVertex
 10
85.97063528666706
 20
-79.56930336552435
 30
0.0
  0
VERTEX
  5
371
330
35A
100
AcDbEntity
  8
KOTY
100
AcDbVertex
100
AcDb2dVertex
 10
86.06606443160848
 20
-79.64664575916821
 30
0.0
  0
VERTEX
  5
372
330
35A
100
AcDbEntity
  8
KOTY
100
AcDbVertex
100
AcDb2dVertex
 10
86.13978947499284
 20
-79.7486205855316
 30
0.0
  0
VERTEX
  5
373
330
35A
100
AcDbEntity
  8
KOTY
100
AcDbVertex
100
AcDb2dVertex
 10
86.1840589519783
 20
-79.86902667274109
 30
0.0
  0
VERTEX
  5
374
330
35A
100
AcDbEntity
  8
KOTY
100
AcDbVertex
100
AcDb2dVertex
 10
86.19887286256487
 20
-80.00786402079665
 30
0.0
  0
VERTEX
  5
375
330
35A
100
AcDbEntity
  8
KOTY
100
AcDbVertex
100
AcDb2dVertex
 10
86.18698728314075
 20
-80.12689206981203
 30
0.0
  0
VERTEX
  5
376
330
35A
100
AcDbEntity
  8
KOTY
100
AcDbVertex
100
AcDb2dVertex
 10
86.15133054486842
 20
-80.2367906157915
 30
0.0
  0
VERTEX
  5
377
330
35A
100
AcDbEntity
  8
KOTY
100
AcDbVertex
100
AcDb2dVertex
 10
86.09138588342508
 20
-80.33824867783211
 30
0.0
  0
VERTEX
  5
378
330
35A
100
AcDbEntity
  8
KOTY
100
AcDbVertex
100
AcDb2dVertex
 10
85.98131508267134
 20
-80.4484917333601
 30
0.0
  0
VERTEX
  5
379
330
35A
100
AcDbEntity
  8
KOTY
100
AcDbVertex
100
AcDb2dVertex
 10
85.84592283010102
 20
-80.5146375666769
 30
0.0
  0
VERTEX
  5
37A
330
35A
100
AcDbEntity
  8
KOTY
100
AcDbVertex
100
AcDb2dVertex
 10
85.68503687093985
 20
-80.53651392300824
 30
0.0
  0
VERTEX
  5
37B
330
35A
100
AcDbEntity
  8
KOTY
100
AcDbVertex
100
AcDb2dVertex
 10
85.55550128069446
 20
-80.5242838340356
 30
0.0
  0
VERTEX
  5
37C
330
35A
100
AcDbEntity
  8
KOTY
100
AcDbVertex
100
AcDb2dVertex
 10
85.442329894004
 20
-80.4870768027949
 30
0.0
  0
VERTEX
  5
37D
330
35A
100
AcDbEntity
  8
KOTY
100
AcDbVertex
100
AcDb2dVertex
 10
85.3463839847398
 20
-80.42540959360893
 30
0.0
  0
VERTEX
  5
37E
330
35A
100
AcDbEntity
  8
KOTY
100
AcDbVertex
100
AcDb2dVertex
 10
85.27076413883856
 20
-80.34221053764014
 30
0.0
  0
VERTEX
  5
37F
330
35A
100
AcDbEntity
  8
KOTY
100
AcDbVertex
100
AcDb2dVertex
 10
85.21874319701129
 20
-80.24247502334217
 30
0.0
  0
VERTEX
  5
380
330
35A
100
AcDbEntity
  8
KOTY
100
AcDbVertex
100
AcDb2dVertex
 10
85.19014890448372
 20
-80.12534177684367
 30
0.0
  0
SEQEND
  5
381
330
35A
100
AcDbEntity
  8
KOTY
  0
HATCH
  5
382
330
22F
100
AcDbEntity
  8
KOTY
 62
     7
100
AcDbHatch
 10
0.0
 20
0.0
 30
0.0
210
0.0
220
0.0
230
1.0
  2
SOLID
 70
     1
 71
     0
 91
        1
 92
        1
 93
       37
 72
     1
 10
85.19014890448372
 20
-80.12534177684367
 11
85.47643633930798
 21
-80.09588621044479
 72
     1
 10
85.47643633930798
 20
-80.09588621044479
 11
85.54930010882101
 21
-80.25022648818397
 72
     1
 10
85.54930010882101
 20
-80.25022648818397
 11
85.68830971165085
 21
-80.30672605414208
 72
     1
 10
85.68830971165085
 20
-80.30672605414208
 11
85.84075518687315
 21
-80.23386228462904
 72
     1
 10
85.84075518687315
 20
-80.23386228462904
 11
85.88760848547254
 21
-80.14187823517287
 72
     1
 10
85.88760848547254
 20
-80.14187823517287
 11
85.90328366993043
 21
-80.012687154476
 72
     1
 10
85.90328366993043
 20
-80.012687154476
 11
85.88760848547254
 21
-79.89210881249225
 72
     1
 10
85.88760848547254
 20
-79.89210881249225
 11
85.84075518687315
 21
-79.80632593490954
 72
     1
 10
85.84075518687315
 20
-79.80632593490954
 11
85.68004148248625
 21
-79.73656275133322
 72
     1
 10
85.68004148248625
 20
-79.73656275133322
 11
85.56273598121349
 21
-79.76412351521522
 72
     1
 10
85.56273598121349
 20
-79.76412351521522
 11
85.4580050784619
 21
-79.84611678776417
 72
     1
 10
85.4580050784619
 20
-79.84611678776417
 11
85.22494436888474
 21
-79.81218259723445
 72
     1
 10
85.22494436888474
 20
-79.81218259723445
 11
85.37204994610491
 21
-79.03169621505111
 72
     1
 10
85.37204994610491
 20
-79.03169621505111
 11
86.13238251969955
 21
-79.03169621505111
 72
     1
 10
86.13238251969955
 20
-79.03169621505111
 11
86.13238251969955
 21
-79.30093042722338
 72
     1
 10
86.13238251969955
 20
-79.30093042722338
 11
85.59012449032122
 21
-79.30093042722338
 72
     1
 10
85.59012449032122
 20
-79.30093042722338
 11
85.54482148469019
 21
-79.55552298358334
 72
     1
 10
85.54482148469019
 20
-79.55552298358334
 11
85.64197317737424
 21
-79.51952173576248
 72
     1
 10
85.64197317737424
 20
-79.51952173576248
 11
85.74153643689796
 21
-79.50763615633838
 72
     1
 10
85.74153643689796
 20
-79.50763615633838
 11
85.86245928843022
 21
-79.52279457647347
 72
     1
 10
85.86245928843022
 20
-79.52279457647347
 11
85.97063528666706
 21
-79.56930336552435
 72
     1
 10
85.97063528666706
 20
-79.56930336552435
 11
86.06606443160848
 21
-79.64664575916821
 72
     1
 10
86.06606443160848
 20
-79.64664575916821
 11
86.13978947499284
 21
-79.7486205855316
 72
     1
 10
86.13978947499284
 20
-79.7486205855316
 11
86.1840589519783
 21
-79.86902667274109
 72
     1
 10
86.1840589519783
 20
-79.86902667274109
 11
86.19887286256487
 21
-80.00786402079665
 72
     1
 10
86.19887286256487
 20
-80.00786402079665
 11
86.18698728314075
 21
-80.12689206981203
 72
     1
 10
86.18698728314075
 20
-80.12689206981203
 11
86.15133054486842
 21
-80.2367906157915
 72
     1
 10
86.15133054486842
 20
-80.2367906157915
 11
86.09138588342508
 21
-80.33824867783211
 72
     1
 10
86.09138588342508
 20
-80.33824867783211
 11
85.98131508267134
 21
-80.4484917333601
 72
     1
 10
85.98131508267134
 20
-80.4484917333601
 11
85.84592283010102
 21
-80.5146375666769
 72
     1
 10
85.84592283010102
 20
-80.5146375666769
 11
85.68503687093985
 21
-80.53651392300824
 72
     1
 10
85.68503687093985
 20
-80.53651392300824
 11
85.55550128069446
 21
-80.5242838340356
 72
     1
 10
85.55550128069446
 20
-80.5242838340356
 11
85.442329894004
 21
-80.4870768027949
 72
     1
 10
85.442329894004
 20
-80.4870768027949
 11
85.3463839847398
 21
-80.42540959360893
 72
     1
 10
85.3463839847398
 20
-80.42540959360893
 11
85.27076413883856
 21
-80.34221053764014
 72
     1
 10
85.27076413883856
 20
-80.34221053764014
 11
85.21874319701129
 21
-80.24247502334217
 72
     1
 10
85.21874319701129
 20
-80.24247502334217
 11
85.19014890448372
 21
-80.12534177684367
 97
        0
 75
     0
 76
     1
 98
        0
  0
POLYLINE
  5
383
330
22F
100
AcDbEntity
  8
KOTY
100
AcDb2dPolyline
 66
     1
 10
0.0
 20
0.0
 30
0.0
  0
VERTEX
  5
384
330
383
100
AcDbEntity
  8
KOTY
100
AcDbVertex
100
AcDb2dVertex
 10
85.03064098351665
 20
-82.25596107969643
 30
0.0
  0
VERTEX
  5
385
330
383
100
AcDbEntity
  8
KOTY
100
AcDbVertex
100
AcDb2dVertex
 10
84.93745115064064
 20
-82.28937850590336
 30
0.0
  0
VERTEX
  5
386
330
383
100
AcDbEntity
  8
KOTY
100
AcDbVertex
100
AcDb2dVertex
 10
84.87388913893778
 20
-82.40823430014447
 30
0.0
  0
VERTEX
  5
387
330
383
100
AcDbEntity
  8
KOTY
100
AcDbVertex
100
AcDb2dVertex
 10
84.85735268060859
 20
-82.49935707572934
 30
0.0
  0
VERTEX
  5
388
330
383
100
AcDbEntity
  8
KOTY
100
AcDbVertex
100
AcDb2dVertex
 10
84.84753415847563
 20
-82.62475855139243
 30
0.0
  0
VERTEX
  5
389
330
383
100
AcDbEntity
  8
KOTY
100
AcDbVertex
100
AcDb2dVertex
 10
84.84408906299036
 20
-82.78392196281096
 30
0.0
  0
VERTEX
  5
38A
330
383
100
AcDbEntity
  8
KOTY
100
AcDbVertex
100
AcDb2dVertex
 10
84.84701739415283
 20
-82.94136282648688
 30
0.0
  0
VERTEX
  5
38B
330
383
100
AcDbEntity
  8
KOTY
100
AcDbVertex
100
AcDb2dVertex
 10
84.85614689718875
 20
-83.06245793279342
 30
0.0
  0
VERTEX
  5
38C
330
383
100
AcDbEntity
  8
KOTY
100
AcDbVertex
100
AcDb2dVertex
 10
84.87078855300106
 20
-83.14686277218203
 30
0.0
  0
VERTEX
  5
38D
330
383
100
AcDbEntity
  8
KOTY
100
AcDbVertex
100
AcDb2dVertex
 10
84.93745115064064
 20
-83.27794865539579
 30
0.0
  0
VERTEX
  5
38E
330
383
100
AcDbEntity
  8
KOTY
100
AcDbVertex
100
AcDb2dVertex
 10
85.03064098351665
 20
-83.3105048077314
 30
0.0
  0
VERTEX
  5
38F
330
383
100
AcDbEntity
  8
KOTY
100
AcDbVertex
100
AcDb2dVertex
 10
85.1236585616184
 20
-83.27794865539579
 30
0.0
  0
VERTEX
  5
390
330
383
100
AcDbEntity
  8
KOTY
100
AcDbVertex
100
AcDb2dVertex
 10
85.18687606377273
 20
-83.15823158728337
 30
0.0
  0
VERTEX
  5
391
330
383
100
AcDbEntity
  8
KOTY
100
AcDbVertex
100
AcDb2dVertex
 10
85.20341252210193
 20
-83.06745332124703
 30
0.0
  0
VERTEX
  5
392
330
383
100
AcDbEntity
  8
KOTY
100
AcDbVertex
100
AcDb2dVertex
 10
85.21340329900916
 20
-82.94256860990673
 30
0.0
  0
VERTEX
  5
393
330
383
100
AcDbEntity
  8
KOTY
100
AcDbVertex
100
AcDb2dVertex
 10
85.21667613972014
 20
-82.78392196281096
 30
0.0
  0
VERTEX
  5
394
330
383
100
AcDbEntity
  8
KOTY
100
AcDbVertex
100
AcDb2dVertex
 10
85.21374780855768
 20
-82.62596433481227
 30
0.0
  0
VERTEX
  5
395
330
383
100
AcDbEntity
  8
KOTY
100
AcDbVertex
100
AcDb2dVertex
 10
85.20479056029603
 20
-82.50538599282852
 30
0.0
  0
VERTEX
  5
396
330
383
100
AcDbEntity
  8
KOTY
100
AcDbVertex
100
AcDb2dVertex
 10
85.19014890448372
 20
-82.42167017253695
 30
0.0
  0
VERTEX
  5
397
330
383
100
AcDbEntity
  8
KOTY
100
AcDbVertex
100
AcDb2dVertex
 10
85.12262503297282
 20
-82.28937850590336
 30
0.0
  0
VERTEX
  5
398
330
383
100
AcDbEntity
  8
KOTY
100
AcDbVertex
100
AcDb2dVertex
 10
85.03064098351665
 20
-82.25596107969643
 30
0.0
  0
SEQEND
  5
399
330
383
100
AcDbEntity
  8
KOTY
  0
POLYLINE
  5
39A
330
22F
100
AcDbEntity
  8
KOTY
100
AcDb2dPolyline
 66
     1
 10
0.0
 20
0.0
 30
0.0
  0
VERTEX
  5
39B
330
39A
100
AcDbEntity
  8
KOTY
100
AcDbVertex
100
AcDb2dVertex
 10
85.03064098351665
 20
-82.01738821734288
 30
0.0
  0
VERTEX
  5
39C
330
39A
100
AcDbEntity
  8
KOTY
100
AcDbVertex
100
AcDb2dVertex
 10
85.1649997074414
 20
-82.03478594954339
 30
0.0
  0
VERTEX
  5
39D
330
39A
100
AcDbEntity
  8
KOTY
100
AcDbVertex
100
AcDb2dVertex
 10
85.27868785845463
 20
-82.08646238182214
 30
0.0
  0
VERTEX
  5
39E
330
39A
100
AcDbEntity
  8
KOTY
100
AcDbVertex
100
AcDb2dVertex
 10
85.37101641745933
 20
-82.17276202372764
 30
0.0
  0
VERTEX
  5
39F
330
39A
100
AcDbEntity
  8
KOTY
100
AcDbVertex
100
AcDb2dVertex
 10
85.43509519348498
 20
-82.28024900286744
 30
0.0
  0
VERTEX
  5
3A0
330
39A
100
AcDbEntity
  8
KOTY
100
AcDbVertex
100
AcDb2dVertex
 10
85.48074270866454
 20
-82.4177083127289
 30
0.0
  0
VERTEX
  5
3A1
330
39A
100
AcDbEntity
  8
KOTY
100
AcDbVertex
100
AcDb2dVertex
 10
85.50813121777227
 20
-82.58565671763483
 30
0.0
  0
VERTEX
  5
3A2
330
39A
100
AcDbEntity
  8
KOTY
100
AcDbVertex
100
AcDb2dVertex
 10
85.51760523035671
 20
-82.78392196281096
 30
0.0
  0
VERTEX
  5
3A3
330
39A
100
AcDbEntity
  8
KOTY
100
AcDbVertex
100
AcDb2dVertex
 10
85.50813121777227
 20
-82.98167044366431
 30
0.0
  0
VERTEX
  5
3A4
330
39A
100
AcDbEntity
  8
KOTY
100
AcDbVertex
100
AcDb2dVertex
 10
85.48074270866454
 20
-83.14944659379597
 30
0.0
  0
VERTEX
  5
3A5
330
39A
100
AcDbEntity
  8
KOTY
100
AcDbVertex
100
AcDb2dVertex
 10
85.43457842916219
 20
-83.28742266798024
 30
0.0
  0
VERTEX
  5
3A6
330
39A
100
AcDbEntity
  8
KOTY
100
AcDbVertex
100
AcDb2dVertex
 10
85.37015514358802
 20
-83.39577092099134
 30
0.0
  0
VERTEX
  5
3A7
330
39A
100
AcDbEntity
  8
KOTY
100
AcDbVertex
100
AcDb2dVertex
 10
85.27817109413185
 20
-83.48086477947702
 30
0.0
  0
VERTEX
  5
3A8
330
39A
100
AcDbEntity
  8
KOTY
100
AcDbVertex
100
AcDb2dVertex
 10
85.1649997074414
 20
-83.5318521926587
 30
0.0
  0
VERTEX
  5
3A9
330
39A
100
AcDbEntity
  8
KOTY
100
AcDbVertex
100
AcDb2dVertex
 10
85.03064098351665
 20
-83.54907767008496
 30
0.0
  0
VERTEX
  5
3AA
330
39A
100
AcDbEntity
  8
KOTY
100
AcDbVertex
100
AcDb2dVertex
 10
84.89404294752649
 20
-83.53047415446461
 30
0.0
  0
VERTEX
  5
3AB
330
39A
100
AcDbEntity
  8
KOTY
100
AcDbVertex
100
AcDb2dVertex
 10
84.77639293670521
 20
-83.4744913528293
 30
0.0
  0
VERTEX
  5
3AC
330
39A
100
AcDbEntity
  8
KOTY
100
AcDbVertex
100
AcDb2dVertex
 10
84.67751869627854
 20
-83.38130151995328
 30
0.0
  0
VERTEX
  5
3AD
330
39A
100
AcDbEntity
  8
KOTY
100
AcDbVertex
100
AcDb2dVertex
 10
84.61877981825504
 20
-83.28036022223547
 30
0.0
  0
VERTEX
  5
3AE
330
39A
100
AcDbEntity
  8
KOTY
100
AcDbVertex
100
AcDb2dVertex
 10
84.57692190810924
 20
-83.14686277218203
 30
0.0
  0
VERTEX
  5
3AF
330
39A
100
AcDbEntity
  8
KOTY
100
AcDbVertex
100
AcDb2dVertex
 10
84.55160045629266
 20
-82.98029240547021
 30
0.0
  0
VERTEX
  5
3B0
330
39A
100
AcDbEntity
  8
KOTY
100
AcDbVertex
100
AcDb2dVertex
 10
84.54333222712806
 20
-82.78047686732572
 30
0.0
  0
VERTEX
  5
3B1
330
39A
100
AcDbEntity
  8
KOTY
100
AcDbVertex
100
AcDb2dVertex
 10
84.55246173016397
 20
-82.58376191511795
 30
0.0
  0
VERTEX
  5
3B2
330
39A
100
AcDbEntity
  8
KOTY
100
AcDbVertex
100
AcDb2dVertex
 10
84.58036700359449
 20
-82.41633027453481
 30
0.0
  0
VERTEX
  5
3B3
330
39A
100
AcDbEntity
  8
KOTY
100
AcDbVertex
100
AcDb2dVertex
 10
84.62635902832258
 20
-82.27869870989907
 30
0.0
  0
VERTEX
  5
3B4
330
39A
100
AcDbEntity
  8
KOTY
100
AcDbVertex
100
AcDb2dVertex
 10
84.69078231389675
 20
-82.1706949664365
 30
0.0
  0
VERTEX
  5
3B5
330
39A
100
AcDbEntity
  8
KOTY
100
AcDbVertex
100
AcDb2dVertex
 10
84.78259410857866
 20
-82.08560110795082
 30
0.0
  0
VERTEX
  5
3B6
330
39A
100
AcDbEntity
  8
KOTY
100
AcDbVertex
100
AcDb2dVertex
 10
84.89576549526912
 20
-82.03426918522061
 30
0.0
  0
VERTEX
  5
3B7
330
39A
100
AcDbEntity
  8
KOTY
100
AcDbVertex
100
AcDb2dVertex
 10
85.03064098351665
 20
-82.01738821734288
 30
0.0
  0
SEQEND
  5
3B8
330
39A
100
AcDbEntity
  8
KOTY
  0
HATCH
  5
3B9
330
22F
100
AcDbEntity
  8
KOTY
 62
     7
100
AcDbHatch
 10
0.0
 20
0.0
 30
0.0
210
0.0
220
0.0
230
1.0
  2
SOLID
 70
     1
 71
     0
 91
        2
 92
        1
 93
       20
 72
     1
 10
85.03064098351665
 20
-82.25596107969643
 11
84.93745115064064
 21
-82.28937850590336
 72
     1
 10
84.93745115064064
 20
-82.28937850590336
 11
84.87388913893778
 21
-82.40823430014447
 72
     1
 10
84.87388913893778
 20
-82.40823430014447
 11
84.85735268060859
 21
-82.49935707572934
 72
     1
 10
84.85735268060859
 20
-82.49935707572934
 11
84.84753415847563
 21
-82.62475855139243
 72
     1
 10
84.84753415847563
 20
-82.62475855139243
 11
84.84408906299036
 21
-82.78392196281096
 72
     1
 10
84.84408906299036
 20
-82.78392196281096
 11
84.84701739415283
 21
-82.94136282648688
 72
     1
 10
84.84701739415283
 20
-82.94136282648688
 11
84.85614689718875
 21
-83.06245793279342
 72
     1
 10
84.85614689718875
 20
-83.06245793279342
 11
84.87078855300106
 21
-83.14686277218203
 72
     1
 10
84.87078855300106
 20
-83.14686277218203
 11
84.93745115064064
 21
-83.27794865539579
 72
     1
 10
84.93745115064064
 20
-83.27794865539579
 11
85.03064098351665
 21
-83.3105048077314
 72
     1
 10
85.03064098351665
 20
-83.3105048077314
 11
85.1236585616184
 21
-83.27794865539579
 72
     1
 10
85.1236585616184
 20
-83.27794865539579
 11
85.18687606377273
 21
-83.15823158728337
 72
     1
 10
85.18687606377273
 20
-83.15823158728337
 11
85.20341252210193
 21
-83.06745332124703
 72
     1
 10
85.20341252210193
 20
-83.06745332124703
 11
85.21340329900916
 21
-82.94256860990673
 72
     1
 10
85.21340329900916
 20
-82.94256860990673
 11
85.21667613972014
 21
-82.78392196281096
 72
     1
 10
85.21667613972014
 20
-82.78392196281096
 11
85.21374780855768
 21
-82.62596433481227
 72
     1
 10
85.21374780855768
 20
-82.62596433481227
 11
85.20479056029603
 21
-82.50538599282852
 72
     1
 10
85.20479056029603
 20
-82.50538599282852
 11
85.19014890448372
 21
-82.42167017253695
 72
     1
 10
85.19014890448372
 20
-82.42167017253695
 11
85.12262503297282
 21
-82.28937850590336
 72
     1
 10
85.12262503297282
 20
-82.28937850590336
 11
85.03064098351665
 21
-82.25596107969643
 97
        0
 92
        1
 93
       28
 72
     1
 10
85.03064098351665
 20
-82.01738821734288
 11
85.1649997074414
 21
-82.03478594954339
 72
     1
 10
85.1649997074414
 20
-82.03478594954339
 11
85.27868785845463
 21
-82.08646238182214
 72
     1
 10
85.27868785845463
 20
-82.08646238182214
 11
85.37101641745933
 21
-82.17276202372764
 72
     1
 10
85.37101641745933
 20
-82.17276202372764
 11
85.43509519348498
 21
-82.28024900286744
 72
     1
 10
85.43509519348498
 20
-82.28024900286744
 11
85.48074270866454
 21
-82.4177083127289
 72
     1
 10
85.48074270866454
 20
-82.4177083127289
 11
85.50813121777227
 21
-82.58565671763483
 72
     1
 10
85.50813121777227
 20
-82.58565671763483
 11
85.51760523035671
 21
-82.78392196281096
 72
     1
 10
85.51760523035671
 20
-82.78392196281096
 11
85.50813121777227
 21
-82.98167044366431
 72
     1
 10
85.50813121777227
 20
-82.98167044366431
 11
85.48074270866454
 21
-83.14944659379597
 72
     1
 10
85.48074270866454
 20
-83.14944659379597
 11
85.43457842916219
 21
-83.28742266798024
 72
     1
 10
85.43457842916219
 20
-83.28742266798024
 11
85.37015514358802
 21
-83.39577092099134
 72
     1
 10
85.37015514358802
 20
-83.39577092099134
 11
85.27817109413185
 21
-83.48086477947702
 72
     1
 10
85.27817109413185
 20
-83.48086477947702
 11
85.1649997074414
 21
-83.5318521926587
 72
     1
 10
85.1649997074414
 20
-83.5318521926587
 11
85.03064098351665
 21
-83.54907767008496
 72
     1
 10
85.03064098351665
 20
-83.54907767008496
 11
84.89404294752649
 21
-83.53047415446461
 72
     1
 10
84.89404294752649
 20
-83.53047415446461
 11
84.77639293670521
 21
-83.4744913528293
 72
     1
 10
84.77639293670521
 20
-83.4744913528293
 11
84.67751869627854
 21
-83.38130151995328
 72
     1
 10
84.67751869627854
 20
-83.38130151995328
 11
84.61877981825504
 21
-83.28036022223547
 72
     1
 10
84.61877981825504
 20
-83.28036022223547
 11
84.57692190810924
 21
-83.14686277218203
 72
     1
 10
84.57692190810924
 20
-83.14686277218203
 11
84.55160045629266
 21
-82.98029240547021
 72
     1
 10
84.55160045629266
 20
-82.98029240547021
 11
84.54333222712806
 21
-82.78047686732572
 72
     1
 10
84.54333222712806
 20
-82.78047686732572
 11
84.55246173016397
 21
-82.58376191511795
 72
     1
 10
84.55246173016397
 20
-82.58376191511795
 11
84.58036700359449
 21
-82.41633027453481
 72
     1
 10
84.58036700359449
 20
-82.41633027453481
 11
84.62635902832258
 21
-82.27869870989907
 72
     1
 10
84.62635902832258
 20
-82.27869870989907
 11
84.69078231389675
 21
-82.1706949664365
 72
     1
 10
84.69078231389675
 20
-82.1706949664365
 11
84.78259410857866
 21
-82.08560110795082
 72
     1
 10
84.78259410857866
 20
-82.08560110795082
 11
84.89576549526912
 21
-82.03426918522061
 72
     1
 10
84.89576549526912
 20
-82.03426918522061
 11
85.03064098351665
 21
-82.01738821734288
 97
        0
 75
     0
 76
     1
 98
        0
  0
POLYLINE
  5
3BA
330
22F
100
AcDbEntity
  8
KOTY
100
AcDb2dPolyline
 66
     1
 10
0.0
 20
0.0
 30
0.0
  0
VERTEX
  5
3BB
330
3BA
100
AcDbEntity
  8
KOTY
100
AcDbVertex
100
AcDb2dVertex
 10
75.36180824938872
 20
-80.23231199166068
 30
0.0
  0
VERTEX
  5
3BC
330
3BA
100
AcDbEntity
  8
KOTY
100
AcDbVertex
100
AcDb2dVertex
 10
75.13339841871665
 20
-80.26624618219039
 30
0.0
  0
VERTEX
  5
3BD
330
3BA
100
AcDbEntity
  8
KOTY
100
AcDbVertex
100
AcDb2dVertex
 10
74.9292765112156
 20
-80.36822100855377
 30
0.0
  0
VERTEX
  5
3BE
330
3BA
100
AcDbEntity
  8
KOTY
100
AcDbVertex
100
AcDb2dVertex
 10
74.74995929120834
 20
-80.5380642159766
 30
0.0
  0
VERTEX
  5
3BF
330
3BA
100
AcDbEntity
  8
KOTY
100
AcDbVertex
100
AcDb2dVertex
 10
74.66142033723743
 20
-80.68000214996889
 30
0.0
  0
VERTEX
  5
3C0
330
3BA
100
AcDbEntity
  8
KOTY
100
AcDbVertex
100
AcDb2dVertex
 10
74.55789521790567
 20
-80.8875691529552
 30
0.0
  0
VERTEX
  5
3C1
330
3BA
100
AcDbEntity
  8
KOTY
100
AcDbVertex
100
AcDb2dVertex
 10
74.51707083640545
 20
-81.1276923082771
 30
0.0
  0
VERTEX
  5
3C2
330
3BA
100
AcDbEntity
  8
KOTY
100
AcDbVertex
100
AcDb2dVertex
 10
74.5053575117556
 20
-81.30253090415354
 30
0.0
  0
VERTEX
  5
3C3
330
3BA
100
AcDbEntity
  8
KOTY
100
AcDbVertex
100
AcDb2dVertex
 10
74.52292749873038
 20
-81.52646211069478
 30
0.0
  0
VERTEX
  5
3C4
330
3BA
100
AcDbEntity
  8
KOTY
100
AcDbVertex
100
AcDb2dVertex
 10
74.57546520488044
 20
-81.73213431116419
 30
0.0
  0
VERTEX
  5
3C5
330
3BA
100
AcDbEntity
  8
KOTY
100
AcDbVertex
100
AcDb2dVertex
 10
74.67158336891892
 20
-81.91610241007653
 30
0.0
  0
VERTEX
  5
3C6
330
3BA
100
AcDbEntity
  8
KOTY
100
AcDbVertex
100
AcDb2dVertex
 10
74.80852591445759
 20
-82.08887394866181
 30
0.0
  0
VERTEX
  5
3C7
330
3BA
100
AcDbEntity
  8
KOTY
100
AcDbVertex
100
AcDb2dVertex
 10
75.60641002884145
 20
-80.2905341053614
 30
0.0
  0
VERTEX
  5
3C8
330
3BA
100
AcDbEntity
  8
KOTY
100
AcDbVertex
100
AcDb2dVertex
 10
75.36180824938872
 20
-80.23231199166068
 30
0.0
  0
SEQEND
  5
3C9
330
3BA
100
AcDbEntity
  8
KOTY
  0
POLYLINE
  5
3CA
330
22F
100
AcDbEntity
  8
KOTY
100
AcDb2dPolyline
 66
     1
 10
0.0
 20
0.0
 30
0.0
  0
VERTEX
  5
3CB
330
3CA
100
AcDbEntity
  8
KOTY
100
AcDbVertex
100
AcDb2dVertex
 10
75.12306313226091
 20
-82.32934161353225
 30
0.0
  0
VERTEX
  5
3CC
330
3CA
100
AcDbEntity
  8
KOTY
100
AcDbVertex
100
AcDb2dVertex
 10
75.21022404803773
 20
-82.34398326934456
 30
0.0
  0
VERTEX
  5
3CD
330
3CA
100
AcDbEntity
  8
KOTY
100
AcDbVertex
100
AcDb2dVertex
 10
75.31529946033784
 20
-82.35104571508933
 30
0.0
  0
VERTEX
  5
3CE
330
3CA
100
AcDbEntity
  8
KOTY
100
AcDbVertex
100
AcDb2dVertex
 10
75.53974743120187
 20
-82.31797279843093
 30
0.0
  0
VERTEX
  5
3CF
330
3CA
100
AcDbEntity
  8
KOTY
100
AcDbVertex
100
AcDb2dVertex
 10
75.73973522412062
 20
-82.21823728413294
 30
0.0
  0
VERTEX
  5
3D0
330
3CA
100
AcDbEntity
  8
KOTY
100
AcDbVertex
100
AcDb2dVertex
 10
75.91509058431984
 20
-82.05252819129242
 30
0.0
  0
VERTEX
  5
3D1
330
3CA
100
AcDbEntity
  8
KOTY
100
AcDbVertex
100
AcDb2dVertex
 10
76.05754528263492
 20
-81.83514266617317
 30
0.0
  0
VERTEX
  5
3D2
330
3CA
100
AcDbEntity
  8
KOTY
100
AcDbVertex
100
AcDb2dVertex
 10
76.14315590544338
 20
-81.58985186762338
 30
0.0
  0
VERTEX
  5
3D3
330
3CA
100
AcDbEntity
  8
KOTY
100
AcDbVertex
100
AcDb2dVertex
 10
76.17140568842242
 20
-81.31700030519158
 30
0.0
  0
VERTEX
  5
3D4
330
3CA
100
AcDbEntity
  8
KOTY
100
AcDbVertex
100
AcDb2dVertex
 10
76.15693628738438
 20
-81.0951361559415
 30
0.0
  0
VERTEX
  5
3D5
330
3CA
100
AcDbEntity
  8
KOTY
100
AcDbVertex
100
AcDb2dVertex
 10
76.1131835747217
 20
-80.89480385347422
 30
0.0
  0
VERTEX
  5
3D6
330
3CA
100
AcDbEntity
  8
KOTY
100
AcDbVertex
100
AcDb2dVertex
 10
76.04031980520867
 20
-80.70360105404285
 30
0.0
  0
VERTEX
  5
3D7
330
3CA
100
AcDbEntity
  8
KOTY
100
AcDbVertex
100
AcDb2dVertex
 10
75.92680390896969
 20
-80.52359481493855
 30
0.0
  0
VERTEX
  5
3D8
330
3CA
100
AcDbEntity
  8
KOTY
100
AcDbVertex
100
AcDb2dVertex
 10
75.12306313226091
 20
-82.32934161353225
 30
0.0
  0
SEQEND
  5
3D9
330
3CA
100
AcDbEntity
  8
KOTY
  0
POLYLINE
  5
3DA
330
22F
100
AcDbEntity
  8
KOTY
100
AcDb2dPolyline
 66
     1
 10
0.0
 20
0.0
 30
0.0
  0
VERTEX
  5
3DB
330
3DA
100
AcDbEntity
  8
KOTY
100
AcDbVertex
100
AcDb2dVertex
 10
76.48025849867508
 20
-81.68131915275676
 30
0.0
  0
VERTEX
  5
3DC
330
3DA
100
AcDbEntity
  8
KOTY
100
AcDbVertex
100
AcDb2dVertex
 10
76.41342364626124
 20
-81.93057181111459
 30
0.0
  0
VERTEX
  5
3DD
330
3DA
100
AcDbEntity
  8
KOTY
100
AcDbVertex
100
AcDb2dVertex
 10
76.3171332274485
 20
-82.15450301765583
 30
0.0
  0
VERTEX
  5
3DE
330
3DA
100
AcDbEntity
  8
KOTY
100
AcDbVertex
100
AcDb2dVertex
 10
76.2005167452728
 20
-82.34398326934456
 30
0.0
  0
VERTEX
  5
3DF
330
3DA
100
AcDbEntity
  8
KOTY
100
AcDbVertex
100
AcDb2dVertex
 10
76.06081812334591
 20
-82.50418020940869
 30
0.0
  0
VERTEX
  5
3E0
330
3DA
100
AcDbEntity
  8
KOTY
100
AcDbVertex
100
AcDb2dVertex
 10
75.9006211832818
 20
-82.62596433481227
 30
0.0
  0
VERTEX
  5
3E1
330
3DA
100
AcDbEntity
  8
KOTY
100
AcDbVertex
100
AcDb2dVertex
 10
75.7228542562429
 20
-82.71519230788023
 30
0.0
  0
VERTEX
  5
3E2
330
3DA
100
AcDbEntity
  8
KOTY
100
AcDbVertex
100
AcDb2dVertex
 10
75.53199596636006
 20
-82.76979707132145
 30
0.0
  0
VERTEX
  5
3E3
330
3DA
100
AcDbEntity
  8
KOTY
100
AcDbVertex
100
AcDb2dVertex
 10
75.33252493776409
 20
-82.78805607739326
 30
0.0
  0
VERTEX
  5
3E4
330
3DA
100
AcDbEntity
  8
KOTY
100
AcDbVertex
100
AcDb2dVertex
 10
75.18679739873802
 20
-82.78082137687424
 30
0.0
  0
VERTEX
  5
3E5
330
3DA
100
AcDbEntity
  8
KOTY
100
AcDbVertex
100
AcDb2dVertex
 10
75.02970104461063
 20
-82.7443033647306
 30
0.0
  0
VERTEX
  5
3E6
330
3DA
100
AcDbEntity
  8
KOTY
100
AcDbVertex
100
AcDb2dVertex
 10
74.98904891788469
 20
-82.72966170891829
 30
0.0
  0
VERTEX
  5
3E7
330
3DA
100
AcDbEntity
  8
KOTY
100
AcDbVertex
100
AcDb2dVertex
 10
74.9540811987094
 20
-82.70795760736121
 30
0.0
  0
VERTEX
  5
3E8
330
3DA
100
AcDbEntity
  8
KOTY
100
AcDbVertex
100
AcDb2dVertex
 10
74.69173717750762
 20
-83.31222735547404
 30
0.0
  0
VERTEX
  5
3E9
330
3DA
100
AcDbEntity
  8
KOTY
100
AcDbVertex
100
AcDb2dVertex
 10
74.31915010077786
 20
-83.20301782859161
 30
0.0
  0
VERTEX
  5
3EA
330
3DA
100
AcDbEntity
  8
KOTY
100
AcDbVertex
100
AcDb2dVertex
 10
74.63368731858117
 20
-82.4967732541154
 30
0.0
  0
VERTEX
  5
3EB
330
3DA
100
AcDbEntity
  8
KOTY
100
AcDbVertex
100
AcDb2dVertex
 10
74.42078041759272
 20
-82.2492431435002
 30
0.0
  0
VERTEX
  5
3EC
330
3DA
100
AcDbEntity
  8
KOTY
100
AcDbVertex
100
AcDb2dVertex
 10
74.27246905695272
 20
-81.97225746648611
 30
0.0
  0
VERTEX
  5
3ED
330
3DA
100
AcDbEntity
  8
KOTY
100
AcDbVertex
100
AcDb2dVertex
 10
74.18513588640164
 20
-81.65565319139165
 30
0.0
  0
VERTEX
  5
3EE
330
3DA
100
AcDbEntity
  8
KOTY
100
AcDbVertex
100
AcDb2dVertex
 10
74.15585257477701
 20
-81.30253090415354
 30
0.0
  0
VERTEX
  5
3EF
330
3DA
100
AcDbEntity
  8
KOTY
100
AcDbVertex
100
AcDb2dVertex
 10
74.1618814918762
 20
-81.098753506201
 30
0.0
  0
VERTEX
  5
3F0
330
3DA
100
AcDbEntity
  8
KOTY
100
AcDbVertex
100
AcDb2dVertex
 10
74.19099254872656
 20
-80.92391491032458
 30
0.0
  0
VERTEX
  5
3F1
330
3DA
100
AcDbEntity
  8
KOTY
100
AcDbVertex
100
AcDb2dVertex
 10
74.28969453437897
 20
-80.57044811353795
 30
0.0
  0
VERTEX
  5
3F2
330
3DA
100
AcDbEntity
  8
KOTY
100
AcDbVertex
100
AcDb2dVertex
 10
74.42370874875519
 20
-80.2863999907791
 30
0.0
  0
VERTEX
  5
3F3
330
3DA
100
AcDbEntity
  8
KOTY
100
AcDbVertex
100
AcDb2dVertex
 10
74.59286293708095
 20
-80.07211505159655
 30
0.0
  0
VERTEX
  5
3F4
330
3DA
100
AcDbEntity
  8
KOTY
100
AcDbVertex
100
AcDb2dVertex
 10
74.80387503555251
 20
-79.91846379295441
 30
0.0
  0
VERTEX
  5
3F5
330
3DA
100
AcDbEntity
  8
KOTY
100
AcDbVertex
100
AcDb2dVertex
 10
75.05622827984706
 20
-79.82613523394971
 30
0.0
  0
VERTEX
  5
3F6
330
3DA
100
AcDbEntity
  8
KOTY
100
AcDbVertex
100
AcDb2dVertex
 10
75.35009492473887
 20
-79.79530162935673
 30
0.0
  0
VERTEX
  5
3F7
330
3DA
100
AcDbEntity
  8
KOTY
100
AcDbVertex
100
AcDb2dVertex
 10
75.4491414199398
 20
-79.80270858465002
 30
0.0
  0
VERTEX
  5
3F8
330
3DA
100
AcDbEntity
  8
KOTY
100
AcDbVertex
100
AcDb2dVertex
 10
75.58884004186669
 20
-79.8244126862071
 30
0.0
  0
VERTEX
  5
3F9
330
3DA
100
AcDbEntity
  8
KOTY
100
AcDbVertex
100
AcDb2dVertex
 10
75.70545652404239
 20
-79.85352374305745
 30
0.0
  0
VERTEX
  5
3FA
330
3DA
100
AcDbEntity
  8
KOTY
100
AcDbVertex
100
AcDb2dVertex
 10
75.78142087949215
 20
-79.89004175520111
 30
0.0
  0
VERTEX
  5
3FB
330
3DA
100
AcDbEntity
  8
KOTY
100
AcDbVertex
100
AcDb2dVertex
 10
75.92111950141903
 20
-79.56964787507287
 30
0.0
  0
VERTEX
  5
3FC
330
3DA
100
AcDbEntity
  8
KOTY
100
AcDbVertex
100
AcDb2dVertex
 10
76.06667478567084
 20
-79.26372339598268
 30
0.0
  0
VERTEX
  5
3FD
330
3DA
100
AcDbEntity
  8
KOTY
100
AcDbVertex
100
AcDb2dVertex
 10
76.4392618624006
 20
-79.36569822234608
 30
0.0
  0
VERTEX
  5
3FE
330
3DA
100
AcDbEntity
  8
KOTY
100
AcDbVertex
100
AcDb2dVertex
 10
76.10749916717104
 20
-80.12310246477826
 30
0.0
  0
VERTEX
  5
3FF
330
3DA
100
AcDbEntity
  8
KOTY
100
AcDbVertex
100
AcDb2dVertex
 10
76.28836668014667
 20
-80.3690822824251
 30
0.0
  0
VERTEX
  5
400
330
3DA
100
AcDbEntity
  8
KOTY
100
AcDbVertex
100
AcDb2dVertex
 10
76.41755776084354
 20
-80.64899629060164
 30
0.0
  0
VERTEX
  5
401
330
3DA
100
AcDbEntity
  8
KOTY
100
AcDbVertex
100
AcDb2dVertex
 10
76.49524466403591
 20
-80.96249997975937
 30
0.0
  0
VERTEX
  5
402
330
3DA
100
AcDbEntity
  8
KOTY
100
AcDbVertex
100
AcDb2dVertex
 10
76.52091062540103
 20
-81.31011011422109
 30
0.0
  0
VERTEX
  5
403
330
3DA
100
AcDbEntity
  8
KOTY
100
AcDbVertex
100
AcDb2dVertex
 10
76.48025849867508
 20
-81.68131915275676
 30
0.0
  0
SEQEND
  5
404
330
3DA
100
AcDbEntity
  8
KOTY
  0
HATCH
  5
405
330
22F
100
AcDbEntity
  8
KOTY
 62
     7
100
AcDbHatch
 10
0.0
 20
0.0
 30
0.0
210
0.0
220
0.0
230
1.0
  2
SOLID
 70
     1
 71
     0
 91
        3
 92
        1
 93
       13
 72
     1
 10
75.36180824938872
 20
-80.23231199166068
 11
75.13339841871665
 21
-80.26624618219039
 72
     1
 10
75.13339841871665
 20
-80.26624618219039
 11
74.9292765112156
 21
-80.36822100855377
 72
     1
 10
74.9292765112156
 20
-80.36822100855377
 11
74.74995929120834
 21
-80.5380642159766
 72
     1
 10
74.74995929120834
 20
-80.5380642159766
 11
74.66142033723743
 21
-80.68000214996889
 72
     1
 10
74.66142033723743
 20
-80.68000214996889
 11
74.55789521790567
 21
-80.8875691529552
 72
     1
 10
74.55789521790567
 20
-80.8875691529552
 11
74.51707083640545
 21
-81.1276923082771
 72
     1
 10
74.51707083640545
 20
-81.1276923082771
 11
74.5053575117556
 21
-81.30253090415354
 72
     1
 10
74.5053575117556
 20
-81.30253090415354
 11
74.52292749873038
 21
-81.52646211069478
 72
     1
 10
74.52292749873038
 20
-81.52646211069478
 11
74.57546520488044
 21
-81.73213431116419
 72
     1
 10
74.57546520488044
 20
-81.73213431116419
 11
74.67158336891892
 21
-81.91610241007653
 72
     1
 10
74.67158336891892
 20
-81.91610241007653
 11
74.80852591445759
 21
-82.08887394866181
 72
     1
 10
74.80852591445759
 20
-82.08887394866181
 11
75.60641002884145
 21
-80.2905341053614
 72
     1
 10
75.60641002884145
 20
-80.2905341053614
 11
75.36180824938872
 21
-80.23231199166068
 97
        0
 92
        1
 93
       13
 72
     1
 10
75.12306313226091
 20
-82.32934161353225
 11
75.21022404803773
 21
-82.34398326934456
 72
     1
 10
75.21022404803773
 20
-82.34398326934456
 11
75.31529946033784
 21
-82.35104571508933
 72
     1
 10
75.31529946033784
 20
-82.35104571508933
 11
75.53974743120187
 21
-82.31797279843093
 72
     1
 10
75.53974743120187
 20
-82.31797279843093
 11
75.73973522412062
 21
-82.21823728413294
 72
     1
 10
75.73973522412062
 20
-82.21823728413294
 11
75.91509058431984
 21
-82.05252819129242
 72
     1
 10
75.91509058431984
 20
-82.05252819129242
 11
76.05754528263492
 21
-81.83514266617317
 72
     1
 10
76.05754528263492
 20
-81.83514266617317
 11
76.14315590544338
 21
-81.58985186762338
 72
     1
 10
76.14315590544338
 20
-81.58985186762338
 11
76.17140568842242
 21
-81.31700030519158
 72
     1
 10
76.17140568842242
 20
-81.31700030519158
 11
76.15693628738438
 21
-81.0951361559415
 72
     1
 10
76.15693628738438
 20
-81.0951361559415
 11
76.1131835747217
 21
-80.89480385347422
 72
     1
 10
76.1131835747217
 20
-80.89480385347422
 11
76.04031980520867
 21
-80.70360105404285
 72
     1
 10
76.04031980520867
 20
-80.70360105404285
 11
75.92680390896969
 21
-80.52359481493855
 72
     1
 10
75.92680390896969
 20
-80.52359481493855
 11
75.12306313226091
 21
-82.32934161353225
 97
        0
 92
        1
 93
       40
 72
     1
 10
76.48025849867508
 20
-81.68131915275676
 11
76.41342364626124
 21
-81.93057181111459
 72
     1
 10
76.41342364626124
 20
-81.93057181111459
 11
76.3171332274485
 21
-82.15450301765583
 72
     1
 10
76.3171332274485
 20
-82.15450301765583
 11
76.2005167452728
 21
-82.34398326934456
 72
     1
 10
76.2005167452728
 20
-82.34398326934456
 11
76.06081812334591
 21
-82.50418020940869
 72
     1
 10
76.06081812334591
 20
-82.50418020940869
 11
75.9006211832818
 21
-82.62596433481227
 72
     1
 10
75.9006211832818
 20
-82.62596433481227
 11
75.7228542562429
 21
-82.71519230788023
 72
     1
 10
75.7228542562429
 20
-82.71519230788023
 11
75.53199596636006
 21
-82.76979707132145
 72
     1
 10
75.53199596636006
 20
-82.76979707132145
 11
75.33252493776409
 21
-82.78805607739326
 72
     1
 10
75.33252493776409
 20
-82.78805607739326
 11
75.18679739873802
 21
-82.78082137687424
 72
     1
 10
75.18679739873802
 20
-82.78082137687424
 11
75.02970104461063
 21
-82.7443033647306
 72
     1
 10
75.02970104461063
 20
-82.7443033647306
 11
74.98904891788469
 21
-82.72966170891829
 72
     1
 10
74.98904891788469
 20
-82.72966170891829
 11
74.9540811987094
 21
-82.70795760736121
 72
     1
 10
74.9540811987094
 20
-82.70795760736121
 11
74.69173717750762
 21
-83.31222735547404
 72
     1
 10
74.69173717750762
 20
-83.31222735547404
 11
74.31915010077786
 21
-83.20301782859161
 72
     1
 10
74.31915010077786
 20
-83.20301782859161
 11
74.63368731858117
 21
-82.4967732541154
 72
     1
 10
74.63368731858117
 20
-82.4967732541154
 11
74.42078041759272
 21
-82.2492431435002
 72
     1
 10
74.42078041759272
 20
-82.2492431435002
 11
74.27246905695272
 21
-81.97225746648611
 72
     1
 10
74.27246905695272
 20
-81.97225746648611
 11
74.18513588640164
 21
-81.65565319139165
 72
     1
 10
74.18513588640164
 20
-81.65565319139165
 11
74.15585257477701
 21
-81.30253090415354
 72
     1
 10
74.15585257477701
 20
-81.30253090415354
 11
74.1618814918762
 21
-81.098753506201
 72
     1
 10
74.1618814918762
 20
-81.098753506201
 11
74.19099254872656
 21
-80.92391491032458
 72
     1
 10
74.19099254872656
 20
-80.92391491032458
 11
74.28969453437897
 21
-80.57044811353795
 72
     1
 10
74.28969453437897
 20
-80.57044811353795
 11
74.42370874875519
 21
-80.2863999907791
 72
     1
 10
74.42370874875519
 20
-80.2863999907791
 11
74.59286293708095
 21
-80.07211505159655
 72
     1
 10
74.59286293708095
 20
-80.07211505159655
 11
74.80387503555251
 21
-79.91846379295441
 72
     1
 10
74.80387503555251
 20
-79.91846379295441
 11
75.05622827984706
 21
-79.82613523394971
 72
     1
 10
75.05622827984706
 20
-79.82613523394971
 11
75.35009492473887
 21
-79.79530162935673
 72
     1
 10
75.35009492473887
 20
-79.79530162935673
 11
75.4491414199398
 21
-79.80270858465002
 72
     1
 10
75.4491414199398
 20
-79.80270858465002
 11
75.58884004186669
 21
-79.8244126862071
 72
     1
 10
75.58884004186669
 20
-79.8244126862071
 11
75.70545652404239
 21
-79.85352374305745
 72
     1
 10
75.70545652404239
 20
-79.85352374305745
 11
75.78142087949215
 21
-79.89004175520111
 72
     1
 10
75.78142087949215
 20
-79.89004175520111
 11
75.92111950141903
 21
-79.56964787507287
 72
     1
 10
75.92111950141903
 20
-79.56964787507287
 11
76.06667478567084
 21
-79.26372339598268
 72
     1
 10
76.06667478567084
 20
-79.26372339598268
 11
76.4392618624006
 21
-79.36569822234608
 72
     1
 10
76.4392618624006
 20
-79.36569822234608
 11
76.10749916717104
 21
-80.12310246477826
 72
     1
 10
76.10749916717104
 20
-80.12310246477826
 11
76.28836668014667
 21
-80.3690822824251
 72
     1
 10
76.28836668014667
 20
-80.3690822824251
 11
76.41755776084354
 21
-80.64899629060164
 72
     1
 10
76.41755776084354
 20
-80.64899629060164
 11
76.49524466403591
 21
-80.96249997975937
 72
     1
 10
76.49524466403591
 20
-80.96249997975937
 11
76.52091062540103
 21
-81.31011011422109
 72
     1
 10
76.52091062540103
 20
-81.31011011422109
 11
76.48025849867508
 21
-81.68131915275676
 97
        0
 75
     0
 76
     1
 98
        0
  0
ENDBLK
  5
232
330
22F
100
AcDbEntity
  8
0
100
AcDbBlockEnd
  0
BLOCK
  5
408
330
406
100
AcDbEntity
  8
0
100
AcDbBlockBegin
  2
BLOCK_4
 70
     0
 71
     0
 10
0.0
 20
0.0
 30
0.0
  3
BLOCK_4
  1

  0
SPLINE
  5
40A
330
406
100
AcDbEntity
  8
KOTY
100
AcDbSpline
210
0.0
220
0.0
230
1.0
 70
    11
 71
     3
 72
    14
 73
    10
 74
     0
 42
0.0000000001
 43
0.0000000001
 40
0.0
 40
0.0
 40
0.0
 40
0.0
 40
1.0
 40
1.0
 40
1.0
 40
2.0
 40
2.0
 40
2.0
 40
3.0
 40
3.0
 40
3.0
 40
3.0
 10
57.65384520043029
 20
-85.44732528245761
 30
0.0
 10
57.65384520043029
 20
-85.44732528245761
 30
0.0
 10
57.65384520043029
 20
-84.10787215779249
 30
0.0
 10
57.65384520043029
 20
-84.10787215779249
 30
0.0
 10
56.82030434777409
 20
-84.33111434523667
 30
0.0
 10
55.98710800466642
 20
-84.55470104222938
 30
0.0
 10
55.15391166155874
 20
-84.77759872012504
 30
0.0
 10
55.98710800466642
 20
-85.00118541711777
 30
0.0
 10
56.82030434777409
 20
-85.22442760456195
 30
0.0
 10
57.65384520043029
 20
-85.44732528245761
 30
0.0
  0
HATCH
  5
40B
330
406
100
AcDbEntity
  8
KOTY
 62
     7
100
AcDbHatch
 10
0.0
 20
0.0
 30
0.0
210
0.0
220
0.0
230
1.0
  2
SOLID
 70
     1
 71
     0
 91
        1
 92
        1
 93
        2
 72
     4
 94
        3
 73
     0
 74
     0
 95
       14
 96
       10
 40
0.0
 40
0.0
 40
0.0
 40
0.0
 40
0.3527777776895833
 40
0.3527777776895833
 40
0.3527777776895833
 40
0.7055555553791667
 40
0.7055555553791667
 40
0.7055555553791667
 40
1.05833333306875
 40
1.05833333306875
 40
1.05833333306875
 40
1.05833333306875
 10
57.65384520043029
 20
-85.44732528245761
 10
57.65384520043029
 20
-85.44732528245761
 10
57.65384520043029
 20
-84.10787215779249
 10
57.65384520043029
 20
-84.10787215779249
 10
56.82030434777409
 20
-84.33111434523667
 10
55.98710800466642
 20
-84.55470104222938
 10
55.15391166155874
 20
-84.77759872012504
 10
55.98710800466642
 20
-85.00118541711777
 10
56.82030434777409
 20
-85.22442760456195
 10
57.65384520043029
 20
-85.44732528245761
 72
     1
 10
57.65384520043029
 20
-85.44732528245761
 11
57.65384520043029
 21
-85.44732528245761
 97
        0
 75
     2
 76
     1
 98
        0
  0
SPLINE
  5
40C
330
406
100
AcDbEntity
  8
KOTY
100
AcDbSpline
210
0.0
220
0.0
230
1.0
 70
    11
 71
     3
 72
    14
 73
    10
 74
     0
 42
0.0000000001
 43
0.0000000001
 40
0.0
 40
0.0
 40
0.0
 40
0.0
 40
1.0
 40
1.0
 40
1.0
 40
2.0
 40
2.0
 40
2.0
 40
3.0
 40
3.0
 40
3.0
 40
3.0
 10
102.4540391453934
 20
-84.10804441256674
 30
0.0
 10
102.4540391453934
 20
-84.10804441256674
 30
0.0
 10
102.4540391453934
 20
-85.44749753723188
 30
0.0
 10
102.4540391453934
 20
-85.44749753723188
 30
0.0
 10
103.2875799980496
 20
-85.2242553497877
 30
0.0
 10
104.1207763411573
 20
-85.00066865279497
 30
0.0
 10
104.953972684265
 20
-84.77777097489931
 30
0.0
 10
104.1207763411573
 20
-84.5541842779066
 30
0.0
 10
103.2875799980496
 20
-84.3309420904624
 30
0.0
 10
102.4540391453934
 20
-84.10804441256674
 30
0.0
  0
HATCH
  5
40D
330
406
100
AcDbEntity
  8
KOTY
 62
     7
100
AcDbHatch
 10
0.0
 20
0.0
 30
0.0
210
0.0
220
0.0
230
1.0
  2
SOLID
 70
     1
 71
     0
 91
        1
 92
        1
 93
        2
 72
     4
 94
        3
 73
     0
 74
     0
 95
       14
 96
       10
 40
0.0
 40
0.0
 40
0.0
 40
0.0
 40
0.3527777776895833
 40
0.3527777776895833
 40
0.3527777776895833
 40
0.7055555553791667
 40
0.7055555553791667
 40
0.7055555553791667
 40
1.05833333306875
 40
1.05833333306875
 40
1.05833333306875
 40
1.05833333306875
 10
102.4540391453934
 20
-84.10804441256674
 10
102.4540391453934
 20
-84.10804441256674
 10
102.4540391453934
 20
-85.44749753723188
 10
102.4540391453934
 20
-85.44749753723188
 10
103.2875799980496
 20
-85.2242553497877
 10
104.1207763411573
 20
-85.00066865279497
 10
104.953972684265
 20
-84.77777097489931
 10
104.1207763411573
 20
-84.5541842779066
 10
103.2875799980496
 20
-84.3309420904624
 10
102.4540391453934
 20
-84.10804441256674
 72
     1
 10
102.4540391453934
 20
-84.10804441256674
 11
102.4540391453934
 21
-84.10804441256674
 97
        0
 75
     2
 76
     1
 98
        0
  0
SPLINE
  5
40E
330
406
100
AcDbEntity
  8
KOTY
100
AcDbSpline
210
0.0
220
0.0
230
1.0
 70
    11
 71
     3
 72
    14
 73
    10
 74
     0
 42
0.0000000001
 43
0.0000000001
 40
0.0
 40
0.0
 40
0.0
 40
0.0
 40
1.0
 40
1.0
 40
1.0
 40
2.0
 40
2.0
 40
2.0
 40
3.0
 40
3.0
 40
3.0
 40
3.0
 10
45.4842176535595
 20
-91.58441837988168
 30
0.0
 10
45.4842176535595
 20
-91.58441837988168
 30
0.0
 10
46.82367077822464
 20
-91.58441837988168
 30
0.0
 10
46.82367077822464
 20
-91.58441837988168
 30
0.0
 10
46.60042859078045
 20
-90.75104978199974
 30
0.0
 10
46.37684189378773
 20
-89.91768118411781
 30
0.0
 10
46.15394421589207
 20
-89.0846570957844
 30
0.0
 10
45.93035751889936
 20
-89.91768118411781
 30
0.0
 10
45.70711533145517
 20
-90.75104978199974
 30
0.0
 10
45.4842176535595
 20
-91.58441837988168
 30
0.0
  0
HATCH
  5
40F
330
406
100
AcDbEntity
  8
KOTY
 62
     7
100
AcDbHatch
 10
0.0
 20
0.0
 30
0.0
210
0.0
220
0.0
230
1.0
  2
SOLID
 70
     1
 71
     0
 91
        1
 92
        1
 93
        2
 72
     4
 94
        3
 73
     0
 74
     0
 95
       14
 96
       10
 40
0.0
 40
0.0
 40
0.0
 40
0.0
 40
0.3527777776895833
 40
0.3527777776895833
 40
0.3527777776895833
 40
0.7055555553791667
 40
0.7055555553791667
 40
0.7055555553791667
 40
1.05833333306875
 40
1.05833333306875
 40
1.05833333306875
 40
1.05833333306875
 10
45.4842176535595
 20
-91.58441837988168
 10
45.4842176535595
 20
-91.58441837988168
 10
46.82367077822464
 20
-91.58441837988168
 10
46.82367077822464
 20
-91.58441837988168
 10
46.60042859078045
 20
-90.75104978199974
 10
46.37684189378773
 20
-89.91768118411781
 10
46.15394421589207
 20
-89.0846570957844
 10
45.93035751889936
 20
-89.91768118411781
 10
45.70711533145517
 20
-90.75104978199974
 10
45.4842176535595
 20
-91.58441837988168
 72
     1
 10
45.4842176535595
 20
-91.58441837988168
 11
45.4842176535595
 21
-91.58441837988168
 97
        0
 75
     2
 76
     1
 98
        0
  0
SPLINE
  5
410
330
406
100
AcDbEntity
  8
KOTY
100
AcDbSpline
210
0.0
220
0.0
230
1.0
 70
    11
 71
     3
 72
    14
 73
    10
 74
     0
 42
0.0000000001
 43
0.0000000001
 40
0.0
 40
0.0
 40
0.0
 40
0.0
 40
1.0
 40
1.0
 40
1.0
 40
2.0
 40
2.0
 40
2.0
 40
3.0
 40
3.0
 40
3.0
 40
3.0
 10
46.82367077822464
 20
-145.9345892647316
 30
0.0
 10
46.82367077822464
 20
-145.9345892647316
 30
0.0
 10
45.4842176535595
 20
-145.9345892647316
 30
0.0
 10
45.4842176535595
 20
-145.9345892647316
 30
0.0
 10
45.70745984100369
 20
-146.7679578626136
 30
0.0
 10
45.93104653799641
 20
-147.6013264604955
 30
0.0
 10
46.15394421589207
 20
-148.4343505488289
 30
0.0
 10
46.37753091288479
 20
-147.6013264604955
 30
0.0
 10
46.60077310032897
 20
-146.7679578626136
 30
0.0
 10
46.82367077822464
 20
-145.9345892647316
 30
0.0
  0
HATCH
  5
411
330
406
100
AcDbEntity
  8
KOTY
 62
     7
100
AcDbHatch
 10
0.0
 20
0.0
 30
0.0
210
0.0
220
0.0
230
1.0
  2
SOLID
 70
     1
 71
     0
 91
        1
 92
        1
 93
        2
 72
     4
 94
        3
 73
     0
 74
     0
 95
       14
 96
       10
 40
0.0
 40
0.0
 40
0.0
 40
0.0
 40
0.3527777776895833
 40
0.3527777776895833
 40
0.3527777776895833
 40
0.7055555553791667
 40
0.7055555553791667
 40
0.7055555553791667
 40
1.05833333306875
 40
1.05833333306875
 40
1.05833333306875
 40
1.05833333306875
 10
46.82367077822464
 20
-145.9345892647316
 10
46.82367077822464
 20
-145.9345892647316
 10
45.4842176535595
 20
-145.9345892647316
 10
45.4842176535595
 20
-145.9345892647316
 10
45.70745984100369
 20
-146.7679578626136
 10
45.93104653799641
 20
-147.6013264604955
 10
46.15394421589207
 20
-148.4343505488289
 10
46.37753091288479
 20
-147.6013264604955
 10
46.60077310032897
 20
-146.7679578626136
 10
46.82367077822464
 20
-145.9345892647316
 72
     1
 10
46.82367077822464
 20
-145.9345892647316
 11
46.82367077822464
 21
-145.9345892647316
 97
        0
 75
     2
 76
     1
 98
        0
  0
ENDBLK
  5
409
330
406
100
AcDbEntity
  8
0
100
AcDbBlockEnd
  0
ENDSEC
  0
SECTION
  2
ENTITIES
  0
SPLINE
  5
3C
330
1F
100
AcDbEntity
  8
VRSTVA_1
 62
     7
100
AcDbSpline
210
0.0
220
0.0
230
1.0
 70
     8
 71
     3
 72
     8
 73
     4
 74
     0
 42
0.0000000001
 43
0.0000000001
 40
0.0
 40
0.0
 40
0.0
 40
0.0
 40
1.0
 40
1.0
 40
1.0
 40
1.0
 10
104.6713025997002
 20
-123.5433634131246
 30
0.0
 10
105.0481960457866
 20
-120.3654350827559
 30
0.0
 10
105.0481960457866
 20
-117.153917071406
 30
0.0
 10
104.6713025997002
 20
-113.9756442314887
 30
0.0
  0
SPLINE
  5
3D
330
1F
100
AcDbEntity
  8
VRSTVA_1
 62
     7
100
AcDbSpline
210
0.0
220
0.0
230
1.0
 70
     8
 71
     3
 72
     8
 73
     4
 74
     0
 42
0.0000000001
 43
0.0000000001
 40
0.0
 40
0.0
 40
0.0
 40
0.0
 40
1.0
 40
1.0
 40
1.0
 40
1.0
 10
55.43675400089776
 20
-113.9756442314887
 30
0.0
 10
55.05986055481143
 20
-117.153917071406
 30
0.0
 10
55.05986055481143
 20
-120.3654350827559
 30
0.0
 10
55.43675400089776
 20
-123.5433634131246
 30
0.0
  0
SPLINE
  5
3E
330
1F
100
AcDbEntity
  8
VRSTVA_1
 62
     7
100
AcDbSpline
210
0.0
220
0.0
230
1.0
 70
     8
 71
     3
 72
     8
 73
     4
 74
     0
 42
0.0000000001
 43
0.0000000001
 40
0.0
 40
0.0
 40
0.0
 40
0.0
 40
1.0
 40
1.0
 40
1.0
 40
1.0
 10
104.1746920855015
 20
-123.9845078900108
 30
0.0
 10
104.4279066036673
 20
-123.9845078900108
 30
0.0
 10
104.6415025237528
 20
-123.7950276383221
 30
0.0
 10
104.6713025997002
 20
-123.5433634131246
 30
0.0
  0
SPLINE
  5
3F
330
1F
100
AcDbEntity
  8
VRSTVA_1
 62
     7
100
AcDbSpline
210
0.0
220
0.0
230
1.0
 70
     8
 71
     3
 72
     8
 73
     4
 74
     0
 42
0.0000000001
 43
0.0000000001
 40
0.0
 40
0.0
 40
0.0
 40
0.0
 40
1.0
 40
1.0
 40
1.0
 40
1.0
 10
55.43675400089776
 20
-123.5433634131246
 30
0.0
 10
55.46655407684517
 20
-123.7950276383221
 30
0.0
 10
55.67980548738213
 20
-123.9845078900108
 30
0.0
 10
55.93319226032226
 20
-123.9845078900108
 30
0.0
  0
SPLINE
  5
40
330
1F
100
AcDbEntity
  8
VRSTVA_1
 62
     7
100
AcDbSpline
210
0.0
220
0.0
230
1.0
 70
     8
 71
     3
 72
     8
 73
     4
 74
     0
 42
0.0000000001
 43
0.0000000001
 40
0.0
 40
0.0
 40
0.0
 40
0.0
 40
1.0
 40
1.0
 40
1.0
 40
1.0
 10
55.93319226032226
 20
-113.5344997546025
 30
0.0
 10
55.67980548738213
 20
-113.5344997546025
 30
0.0
 10
55.46655407684517
 20
-113.7239800062912
 30
0.0
 10
55.43675400089776
 20
-113.9756442314887
 30
0.0
  0
SPLINE
  5
41
330
1F
100
AcDbEntity
  8
VRSTVA_1
 62
     7
100
AcDbSpline
210
0.0
220
0.0
230
1.0
 70
     8
 71
     3
 72
     8
 73
     4
 74
     0
 42
0.0000000001
 43
0.0000000001
 40
0.0
 40
0.0
 40
0.0
 40
0.0
 40
1.0
 40
1.0
 40
1.0
 40
1.0
 10
104.6713025997002
 20
-113.9756442314887
 30
0.0
 10
104.6415025237528
 20
-113.7239800062912
 30
0.0
 10
104.4279066036673
 20
-113.5344997546025
 30
0.0
 10
104.1746920855015
 20
-113.5344997546025
 30
0.0
  0
POLYLINE
  5
42
330
1F
100
AcDbEntity
  8
VRSTVA_1
 62
     7
100
AcDb2dPolyline
 66
     1
 10
0.0
 20
0.0
 30
0.0
  0
VERTEX
  5
43
330
42
100
AcDbEntity
  8
VRSTVA_1
 62
     7
100
AcDbVertex
100
AcDb2dVertex
 10
55.93319226032226
 20
-113.5344997546025
 30
0.0
  0
VERTEX
  5
44
330
42
100
AcDbEntity
  8
VRSTVA_1
 62
     7
100
AcDbVertex
100
AcDb2dVertex
 10
55.984868692601
 20
-113.5344997546025
 30
0.0
  0
VERTEX
  5
45
330
42
100
AcDbEntity
  8
VRSTVA_1
 62
     7
100
AcDbVertex
100
AcDb2dVertex
 10
56.13955347988873
 20
-113.5344997546025
 30
0.0
  0
VERTEX
  5
46
330
42
100
AcDbEntity
  8
VRSTVA_1
 62
     7
100
AcDbVertex
100
AcDb2dVertex
 10
56.39655760308836
 20
-113.5344997546025
 30
0.0
  0
VERTEX
  5
47
330
42
100
AcDbEntity
  8
VRSTVA_1
 62
     7
100
AcDbVertex
100
AcDb2dVertex
 10
56.75501978832861
 20
-113.5344997546025
 30
0.0
  0
VERTEX
  5
48
330
42
100
AcDbEntity
  8
VRSTVA_1
 62
     7
100
AcDbVertex
100
AcDb2dVertex
 10
57.2133897426411
 20
-113.5344997546025
 30
0.0
  0
VERTEX
  5
49
330
42
100
AcDbEntity
  8
VRSTVA_1
 62
     7
100
AcDbVertex
100
AcDb2dVertex
 10
57.76925589918616
 20
-113.5344997546025
 30
0.0
  0
VERTEX
  5
4A
330
42
100
AcDbEntity
  8
VRSTVA_1
 62
     7
100
AcDbVertex
100
AcDb2dVertex
 10
58.4207234554469
 20
-113.5344997546025
 30
0.0
  0
VERTEX
  5
4B
330
42
100
AcDbEntity
  8
VRSTVA_1
 62
     7
100
AcDbVertex
100
AcDb2dVertex
 10
59.16469182548661
 20
-113.5344997546025
 30
0.0
  0
VERTEX
  5
4C
330
42
100
AcDbEntity
  8
VRSTVA_1
 62
     7
100
AcDbVertex
100
AcDb2dVertex
 10
59.99840493291707
 20
-113.5344997546025
 30
0.0
  0
VERTEX
  5
4D
330
42
100
AcDbEntity
  8
VRSTVA_1
 62
     7
100
AcDbVertex
100
AcDb2dVertex
 10
60.91755640838173
 20
-113.5344997546025
 30
0.0
  0
VERTEX
  5
4E
330
42
100
AcDbEntity
  8
VRSTVA_1
 62
     7
100
AcDbVertex
100
AcDb2dVertex
 10
61.91904566594386
 20
-113.5344997546025
 30
0.0
  0
VERTEX
  5
4F
330
42
100
AcDbEntity
  8
VRSTVA_1
 62
     7
100
AcDbVertex
100
AcDb2dVertex
 10
62.9980495719241
 20
-113.5344997546025
 30
0.0
  0
VERTEX
  5
50
330
42
100
AcDbEntity
  8
VRSTVA_1
 62
     7
100
AcDbVertex
100
AcDb2dVertex
 10
64.15008950219165
 20
-113.5344997546025
 30
0.0
  0
VERTEX
  5
51
330
42
100
AcDbEntity
  8
VRSTVA_1
 62
     7
100
AcDbVertex
100
AcDb2dVertex
 10
65.37034232306713
 20
-113.5344997546025
 30
0.0
  0
VERTEX
  5
52
330
42
100
AcDbEntity
  8
VRSTVA_1
 62
     7
100
AcDbVertex
100
AcDb2dVertex
 10
66.65312362699991
 20
-113.5344997546025
 30
0.0
  0
VERTEX
  5
53
330
42
100
AcDbEntity
  8
VRSTVA_1
 62
     7
100
AcDbVertex
100
AcDb2dVertex
 10
67.99378253508489
 20
-113.5344997546025
 30
0.0
  0
VERTEX
  5
54
330
42
100
AcDbEntity
  8
VRSTVA_1
 62
     7
100
AcDbVertex
100
AcDb2dVertex
 10
69.38560111112582
 20
-113.5344997546025
 30
0.0
  0
VERTEX
  5
55
330
42
100
AcDbEntity
  8
VRSTVA_1
 62
     7
100
AcDbVertex
100
AcDb2dVertex
 10
70.82323945712058
 20
-113.5344997546025
 30
0.0
  0
VERTEX
  5
56
330
42
100
AcDbEntity
  8
VRSTVA_1
 62
     7
100
AcDbVertex
100
AcDb2dVertex
 10
72.30049640119572
 20
-113.5344997546025
 30
0.0
  0
VERTEX
  5
57
330
42
100
AcDbEntity
  8
VRSTVA_1
 62
     7
100
AcDbVertex
100
AcDb2dVertex
 10
73.8109985167035
 20
-113.5344997546025
 30
0.0
  0
VERTEX
  5
58
330
42
100
AcDbEntity
  8
VRSTVA_1
 62
     7
100
AcDbVertex
100
AcDb2dVertex
 10
75.34820012222198
 20
-113.5344997546025
 30
0.0
  0
VERTEX
  5
59
330
42
100
AcDbEntity
  8
VRSTVA_1
 62
     7
100
AcDbVertex
100
AcDb2dVertex
 10
76.90555553632917
 20
-113.5344997546025
 30
0.0
  0
VERTEX
  5
5A
330
42
100
AcDbEntity
  8
VRSTVA_1
 62
     7
100
AcDbVertex
100
AcDb2dVertex
 10
78.47634682282883
 20
-113.5344997546025
 30
0.0
  0
VERTEX
  5
5B
330
42
100
AcDbEntity
  8
VRSTVA_1
 62
     7
100
AcDbVertex
100
AcDb2dVertex
 10
80.05385604552474
 20
-113.5344997546025
 30
0.0
  0
SEQEND
  5
5C
330
42
100
AcDbEntity
  8
VRSTVA_1
  0
POLYLINE
  5
5D
330
1F
100
AcDbEntity
  8
VRSTVA_1
 62
     7
100
AcDb2dPolyline
 66
     1
 10
0.0
 20
0.0
 30
0.0
  0
VERTEX
  5
5E
330
5D
100
AcDbEntity
  8
VRSTVA_1
 62
     7
100
AcDbVertex
100
AcDb2dVertex
 10
80.05385604552474
 20
-113.5344997546025
 30
0.0
  0
VERTEX
  5
5F
330
5D
100
AcDbEntity
  8
VRSTVA_1
 62
     7
100
AcDbVertex
100
AcDb2dVertex
 10
81.6315375229949
 20
-113.5344997546025
 30
0.0
  0
VERTEX
  5
60
330
5D
100
AcDbEntity
  8
VRSTVA_1
 62
     7
100
AcDbVertex
100
AcDb2dVertex
 10
83.20232880949456
 20
-113.5344997546025
 30
0.0
  0
VERTEX
  5
61
330
5D
100
AcDbEntity
  8
VRSTVA_1
 62
     7
100
AcDbVertex
100
AcDb2dVertex
 10
84.75951196882748
 20
-113.5344997546025
 30
0.0
  0
VERTEX
  5
62
330
5D
100
AcDbEntity
  8
VRSTVA_1
 62
     7
100
AcDbVertex
100
AcDb2dVertex
 10
86.29671357434596
 20
-113.5344997546025
 30
0.0
  0
VERTEX
  5
63
330
5D
100
AcDbEntity
  8
VRSTVA_1
 62
     7
100
AcDbVertex
100
AcDb2dVertex
 10
87.80721568985375
 20
-113.5344997546025
 30
0.0
  0
VERTEX
  5
64
330
5D
100
AcDbEntity
  8
VRSTVA_1
 62
     7
100
AcDbVertex
100
AcDb2dVertex
 10
89.28447263392889
 20
-113.5344997546025
 30
0.0
  0
VERTEX
  5
65
330
5D
100
AcDbEntity
  8
VRSTVA_1
 62
     7
100
AcDbVertex
100
AcDb2dVertex
 10
90.72228323469791
 20
-113.5344997546025
 30
0.0
  0
VERTEX
  5
66
330
5D
100
AcDbEntity
  8
VRSTVA_1
 62
     7
100
AcDbVertex
100
AcDb2dVertex
 10
92.1142740655131
 20
-113.5344997546025
 30
0.0
  0
VERTEX
  5
67
330
5D
100
AcDbEntity
  8
VRSTVA_1
 62
     7
100
AcDbVertex
100
AcDb2dVertex
 10
93.45458846404955
 20
-113.5344997546025
 30
0.0
  0
VERTEX
  5
68
330
5D
100
AcDbEntity
  8
VRSTVA_1
 62
     7
100
AcDbVertex
100
AcDb2dVertex
 10
94.73771427753086
 20
-113.5344997546025
 30
0.0
  0
VERTEX
  5
69
330
5D
100
AcDbEntity
  8
VRSTVA_1
 62
     7
100
AcDbVertex
100
AcDb2dVertex
 10
95.95779484363209
 20
-113.5344997546025
 30
0.0
  0
VERTEX
  5
6A
330
5D
100
AcDbEntity
  8
VRSTVA_1
 62
     7
100
AcDbVertex
100
AcDb2dVertex
 10
97.10983477389964
 20
-113.5344997546025
 30
0.0
  0
VERTEX
  5
6B
330
5D
100
AcDbEntity
  8
VRSTVA_1
 62
     7
100
AcDbVertex
100
AcDb2dVertex
 10
98.18901093465414
 20
-113.5344997546025
 30
0.0
  0
VERTEX
  5
6C
330
5D
100
AcDbEntity
  8
VRSTVA_1
 62
     7
100
AcDbVertex
100
AcDb2dVertex
 10
99.19015568266774
 20
-113.5344997546025
 30
0.0
  0
VERTEX
  5
6D
330
5D
100
AcDbEntity
  8
VRSTVA_1
 62
     7
100
AcDbVertex
100
AcDb2dVertex
 10
100.1096516676809
 20
-113.5344997546025
 30
0.0
  0
VERTEX
  5
6E
330
5D
100
AcDbEntity
  8
VRSTVA_1
 62
     7
100
AcDbVertex
100
AcDb2dVertex
 10
100.9431925203371
 20
-113.5344997546025
 30
0.0
  0
VERTEX
  5
6F
330
5D
100
AcDbEntity
  8
VRSTVA_1
 62
     7
100
AcDbVertex
100
AcDb2dVertex
 10
101.6871608903768
 20
-113.5344997546025
 30
0.0
  0
VERTEX
  5
70
330
5D
100
AcDbEntity
  8
VRSTVA_1
 62
     7
100
AcDbVertex
100
AcDb2dVertex
 10
102.3388007014118
 20
-113.5344997546025
 30
0.0
  0
VERTEX
  5
71
330
5D
100
AcDbEntity
  8
VRSTVA_1
 62
     7
100
AcDbVertex
100
AcDb2dVertex
 10
102.8946668579569
 20
-113.5344997546025
 30
0.0
  0
VERTEX
  5
72
330
5D
100
AcDbEntity
  8
VRSTVA_1
 62
     7
100
AcDbVertex
100
AcDb2dVertex
 10
103.3526923027209
 20
-113.5344997546025
 30
0.0
  0
VERTEX
  5
73
330
5D
100
AcDbEntity
  8
VRSTVA_1
 62
     7
100
AcDbVertex
100
AcDb2dVertex
 10
103.7111544879611
 20
-113.5344997546025
 30
0.0
  0
VERTEX
  5
74
330
5D
100
AcDbEntity
  8
VRSTVA_1
 62
     7
100
AcDbVertex
100
AcDb2dVertex
 10
103.968330865935
 20
-113.5344997546025
 30
0.0
  0
VERTEX
  5
75
330
5D
100
AcDbEntity
  8
VRSTVA_1
 62
     7
100
AcDbVertex
100
AcDb2dVertex
 10
104.1230156532227
 20
-113.5344997546025
 30
0.0
  0
VERTEX
  5
76
330
5D
100
AcDbEntity
  8
VRSTVA_1
 62
     7
100
AcDbVertex
100
AcDb2dVertex
 10
104.1746920855015
 20
-113.5344997546025
 30
0.0
  0
SEQEND
  5
77
330
5D
100
AcDbEntity
  8
VRSTVA_1
  0
POLYLINE
  5
78
330
1F
100
AcDbEntity
  8
VRSTVA_1
 62
     7
100
AcDb2dPolyline
 66
     1
 10
0.0
 20
0.0
 30
0.0
  0
VERTEX
  5
79
330
78
100
AcDbEntity
  8
VRSTVA_1
 62
     7
100
AcDbVertex
100
AcDb2dVertex
 10
104.1746920855015
 20
-123.9845078900108
 30
0.0
  0
VERTEX
  5
7A
330
78
100
AcDbEntity
  8
VRSTVA_1
 62
     7
100
AcDbVertex
100
AcDb2dVertex
 10
104.1230156532227
 20
-123.9845078900108
 30
0.0
  0
VERTEX
  5
7B
330
78
100
AcDbEntity
  8
VRSTVA_1
 62
     7
100
AcDbVertex
100
AcDb2dVertex
 10
103.968330865935
 20
-123.9845078900108
 30
0.0
  0
VERTEX
  5
7C
330
78
100
AcDbEntity
  8
VRSTVA_1
 62
     7
100
AcDbVertex
100
AcDb2dVertex
 10
103.7111544879611
 20
-123.9845078900108
 30
0.0
  0
VERTEX
  5
7D
330
78
100
AcDbEntity
  8
VRSTVA_1
 62
     7
100
AcDbVertex
100
AcDb2dVertex
 10
103.3526923027209
 20
-123.9845078900108
 30
0.0
  0
VERTEX
  5
7E
330
78
100
AcDbEntity
  8
VRSTVA_1
 62
     7
100
AcDbVertex
100
AcDb2dVertex
 10
102.8946668579569
 20
-123.9845078900108
 30
0.0
  0
VERTEX
  5
7F
330
78
100
AcDbEntity
  8
VRSTVA_1
 62
     7
100
AcDbVertex
100
AcDb2dVertex
 10
102.3388007014118
 20
-123.9845078900108
 30
0.0
  0
VERTEX
  5
80
330
78
100
AcDbEntity
  8
VRSTVA_1
 62
     7
100
AcDbVertex
100
AcDb2dVertex
 10
101.6871608903768
 20
-123.9845078900108
 30
0.0
  0
VERTEX
  5
81
330
78
100
AcDbEntity
  8
VRSTVA_1
 62
     7
100
AcDbVertex
100
AcDb2dVertex
 10
100.9431925203371
 20
-123.9845078900108
 30
0.0
  0
VERTEX
  5
82
330
78
100
AcDbEntity
  8
VRSTVA_1
 62
     7
100
AcDbVertex
100
AcDb2dVertex
 10
100.1096516676809
 20
-123.9845078900108
 30
0.0
  0
VERTEX
  5
83
330
78
100
AcDbEntity
  8
VRSTVA_1
 62
     7
100
AcDbVertex
100
AcDb2dVertex
 10
99.19015568266774
 20
-123.9845078900108
 30
0.0
  0
VERTEX
  5
84
330
78
100
AcDbEntity
  8
VRSTVA_1
 62
     7
100
AcDbVertex
100
AcDb2dVertex
 10
98.18901093465414
 20
-123.9845078900108
 30
0.0
  0
VERTEX
  5
85
330
78
100
AcDbEntity
  8
VRSTVA_1
 62
     7
100
AcDbVertex
100
AcDb2dVertex
 10
97.10983477389964
 20
-123.9845078900108
 30
0.0
  0
VERTEX
  5
86
330
78
100
AcDbEntity
  8
VRSTVA_1
 62
     7
100
AcDbVertex
100
AcDb2dVertex
 10
95.95779484363209
 20
-123.9845078900108
 30
0.0
  0
VERTEX
  5
87
330
78
100
AcDbEntity
  8
VRSTVA_1
 62
     7
100
AcDbVertex
100
AcDb2dVertex
 10
94.73771427753086
 20
-123.9845078900108
 30
0.0
  0
VERTEX
  5
88
330
78
100
AcDbEntity
  8
VRSTVA_1
 62
     7
100
AcDbVertex
100
AcDb2dVertex
 10
93.45458846404955
 20
-123.9845078900108
 30
0.0
  0
VERTEX
  5
89
330
78
100
AcDbEntity
  8
VRSTVA_1
 62
     7
100
AcDbVertex
100
AcDb2dVertex
 10
92.1142740655131
 20
-123.9845078900108
 30
0.0
  0
VERTEX
  5
8A
330
78
100
AcDbEntity
  8
VRSTVA_1
 62
     7
100
AcDbVertex
100
AcDb2dVertex
 10
90.72228323469791
 20
-123.9845078900108
 30
0.0
  0
VERTEX
  5
8B
330
78
100
AcDbEntity
  8
VRSTVA_1
 62
     7
100
AcDbVertex
100
AcDb2dVertex
 10
89.28447263392889
 20
-123.9845078900108
 30
0.0
  0
VERTEX
  5
8C
330
78
100
AcDbEntity
  8
VRSTVA_1
 62
     7
100
AcDbVertex
100
AcDb2dVertex
 10
87.80721568985375
 20
-123.9845078900108
 30
0.0
  0
VERTEX
  5
8D
330
78
100
AcDbEntity
  8
VRSTVA_1
 62
     7
100
AcDbVertex
100
AcDb2dVertex
 10
86.29671357434596
 20
-123.9845078900108
 30
0.0
  0
VERTEX
  5
8E
330
78
100
AcDbEntity
  8
VRSTVA_1
 62
     7
100
AcDbVertex
100
AcDb2dVertex
 10
84.75951196882748
 20
-123.9845078900108
 30
0.0
  0
VERTEX
  5
8F
330
78
100
AcDbEntity
  8
VRSTVA_1
 62
     7
100
AcDbVertex
100
AcDb2dVertex
 10
83.20232880949456
 20
-123.9845078900108
 30
0.0
  0
VERTEX
  5
90
330
78
100
AcDbEntity
  8
VRSTVA_1
 62
     7
100
AcDbVertex
100
AcDb2dVertex
 10
81.6315375229949
 20
-123.9845078900108
 30
0.0
  0
VERTEX
  5
91
330
78
100
AcDbEntity
  8
VRSTVA_1
 62
     7
100
AcDbVertex
100
AcDb2dVertex
 10
80.05385604552474
 20
-123.9845078900108
 30
0.0
  0
VERTEX
  5
92
330
78
100
AcDbEntity
  8
VRSTVA_1
 62
     7
100
AcDbVertex
100
AcDb2dVertex
 10
78.47634682282883
 20
-123.9845078900108
 30
0.0
  0
VERTEX
  5
93
330
78
100
AcDbEntity
  8
VRSTVA_1
 62
     7
100
AcDbVertex
100
AcDb2dVertex
 10
76.90555553632917
 20
-123.9845078900108
 30
0.0
  0
VERTEX
  5
94
330
78
100
AcDbEntity
  8
VRSTVA_1
 62
     7
100
AcDbVertex
100
AcDb2dVertex
 10
75.34820012222198
 20
-123.9845078900108
 30
0.0
  0
VERTEX
  5
95
330
78
100
AcDbEntity
  8
VRSTVA_1
 62
     7
100
AcDbVertex
100
AcDb2dVertex
 10
73.8109985167035
 20
-123.9845078900108
 30
0.0
  0
VERTEX
  5
96
330
78
100
AcDbEntity
  8
VRSTVA_1
 62
     7
100
AcDbVertex
100
AcDb2dVertex
 10
72.30049640119572
 20
-123.9845078900108
 30
0.0
  0
VERTEX
  5
97
330
78
100
AcDbEntity
  8
VRSTVA_1
 62
     7
100
AcDbVertex
100
AcDb2dVertex
 10
70.82323945712058
 20
-123.9845078900108
 30
0.0
  0
VERTEX
  5
98
330
78
100
AcDbEntity
  8
VRSTVA_1
 62
     7
100
AcDbVertex
100
AcDb2dVertex
 10
69.38560111112582
 20
-123.9845078900108
 30
0.0
  0
VERTEX
  5
99
330
78
100
AcDbEntity
  8
VRSTVA_1
 62
     7
100
AcDbVertex
100
AcDb2dVertex
 10
67.99378253508489
 20
-123.9845078900108
 30
0.0
  0
VERTEX
  5
9A
330
78
100
AcDbEntity
  8
VRSTVA_1
 62
     7
100
AcDbVertex
100
AcDb2dVertex
 10
66.65312362699991
 20
-123.9845078900108
 30
0.0
  0
VERTEX
  5
9B
330
78
100
AcDbEntity
  8
VRSTVA_1
 62
     7
100
AcDbVertex
100
AcDb2dVertex
 10
65.37034232306713
 20
-123.9845078900108
 30
0.0
  0
VERTEX
  5
9C
330
78
100
AcDbEntity
  8
VRSTVA_1
 62
     7
100
AcDbVertex
100
AcDb2dVertex
 10
64.15008950219165
 20
-123.9845078900108
 30
0.0
  0
VERTEX
  5
9D
330
78
100
AcDbEntity
  8
VRSTVA_1
 62
     7
100
AcDbVertex
100
AcDb2dVertex
 10
62.9980495719241
 20
-123.9845078900108
 30
0.0
  0
VERTEX
  5
9E
330
78
100
AcDbEntity
  8
VRSTVA_1
 62
     7
100
AcDbVertex
100
AcDb2dVertex
 10
61.91904566594386
 20
-123.9845078900108
 30
0.0
  0
VERTEX
  5
9F
330
78
100
AcDbEntity
  8
VRSTVA_1
 62
     7
100
AcDbVertex
100
AcDb2dVertex
 10
60.91755640838173
 20
-123.9845078900108
 30
0.0
  0
VERTEX
  5
A0
330
78
100
AcDbEntity
  8
VRSTVA_1
 62
     7
100
AcDbVertex
100
AcDb2dVertex
 10
59.99840493291707
 20
-123.9845078900108
 30
0.0
  0
VERTEX
  5
A1
330
78
100
AcDbEntity
  8
VRSTVA_1
 62
     7
100
AcDbVertex
100
AcDb2dVertex
 10
59.16469182548661
 20
-123.9845078900108
 30
0.0
  0
VERTEX
  5
A2
330
78
100
AcDbEntity
  8
VRSTVA_1
 62
     7
100
AcDbVertex
100
AcDb2dVertex
 10
58.4207234554469
 20
-123.9845078900108
 30
0.0
  0
VERTEX
  5
A3
330
78
100
AcDbEntity
  8
VRSTVA_1
 62
     7
100
AcDbVertex
100
AcDb2dVertex
 10
57.76925589918616
 20
-123.9845078900108
 30
0.0
  0
VERTEX
  5
A4
330
78
100
AcDbEntity
  8
VRSTVA_1
 62
     7
100
AcDbVertex
100
AcDb2dVertex
 10
57.2133897426411
 20
-123.9845078900108
 30
0.0
  0
VERTEX
  5
A5
330
78
100
AcDbEntity
  8
VRSTVA_1
 62
     7
100
AcDbVertex
100
AcDb2dVertex
 10
56.75501978832861
 20
-123.9845078900108
 30
0.0
  0
VERTEX
  5
A6
330
78
100
AcDbEntity
  8
VRSTVA_1
 62
     7
100
AcDbVertex
100
AcDb2dVertex
 10
56.39655760308836
 20
-123.9845078900108
 30
0.0
  0
VERTEX
  5
A7
330
78
100
AcDbEntity
  8
VRSTVA_1
 62
     7
100
AcDbVertex
100
AcDb2dVertex
 10
56.13955347988873
 20
-123.9845078900108
 30
0.0
  0
VERTEX
  5
A8
330
78
100
AcDbEntity
  8
VRSTVA_1
 62
     7
100
AcDbVertex
100
AcDb2dVertex
 10
55.984868692601
 20
-123.9845078900108
 30
0.0
  0
VERTEX
  5
A9
330
78
100
AcDbEntity
  8
VRSTVA_1
 62
     7
100
AcDbVertex
100
AcDb2dVertex
 10
55.93319226032226
 20
-123.9845078900108
 30
0.0
  0
SEQEND
  5
AA
330
78
100
AcDbEntity
  8
VRSTVA_1
  0
POLYLINE
  5
AB
330
1F
100
AcDbEntity
  8
VRSTVA_1
 62
     7
100
AcDb2dPolyline
 66
     1
 10
0.0
 20
0.0
 30
0.0
  0
VERTEX
  5
AC
330
AB
100
AcDbEntity
  8
VRSTVA_1
 62
     7
100
AcDbVertex
100
AcDb2dVertex
 10
58.80399032818095
 20
-148.4345228036032
 30
0.0
  0
VERTEX
  5
AD
330
AB
100
AcDbEntity
  8
VRSTVA_1
 62
     7
100
AcDbVertex
100
AcDb2dVertex
 10
58.85497774136265
 20
-148.4345228036032
 30
0.0
  0
VERTEX
  5
AE
330
AB
100
AcDbEntity
  8
VRSTVA_1
 62
     7
100
AcDbVertex
100
AcDb2dVertex
 10
59.00759547135922
 20
-148.4345228036032
 30
0.0
  0
VERTEX
  5
AF
330
AB
100
AcDbEntity
  8
VRSTVA_1
 62
     7
100
AcDbVertex
100
AcDb2dVertex
 10
59.26149900862213
 20
-148.4345228036032
 30
0.0
  0
VERTEX
  5
B0
330
AB
100
AcDbEntity
  8
VRSTVA_1
 62
     7
100
AcDbVertex
100
AcDb2dVertex
 10
59.61531031495728
 20
-148.4345228036032
 30
0.0
  0
VERTEX
  5
B1
330
AB
100
AcDbEntity
  8
VRSTVA_1
 62
     7
100
AcDbVertex
100
AcDb2dVertex
 10
60.06696233307354
 20
-148.4345228036032
 30
0.0
  0
VERTEX
  5
B2
330
AB
100
AcDbEntity
  8
VRSTVA_1
 62
     7
100
AcDbVertex
100
AcDb2dVertex
 10
60.61473251522826
 20
-148.4345228036032
 30
0.0
  0
VERTEX
  5
B3
330
AB
100
AcDbEntity
  8
VRSTVA_1
 62
     7
100
AcDbVertex
100
AcDb2dVertex
 10
61.25552027548473
 20
-148.4345228036032
 30
0.0
  0
VERTEX
  5
B4
330
AB
100
AcDbEntity
  8
VRSTVA_1
 62
     7
100
AcDbVertex
100
AcDb2dVertex
 10
61.98691404700327
 20
-148.4345228036032
 30
0.0
  0
VERTEX
  5
B5
330
AB
100
AcDbEntity
  8
VRSTVA_1
 62
     7
100
AcDbVertex
100
AcDb2dVertex
 10
62.80477971520158
 20
-148.4345228036032
 30
0.0
  0
VERTEX
  5
B6
330
AB
100
AcDbEntity
  8
VRSTVA_1
 62
     7
100
AcDbVertex
100
AcDb2dVertex
 10
63.70567218459442
 20
-148.4345228036032
 30
0.0
  0
VERTEX
  5
B7
330
AB
100
AcDbEntity
  8
VRSTVA_1
 62
     7
100
AcDbVertex
100
AcDb2dVertex
 10
64.68494057627669
 20
-148.4345228036032
 30
0.0
  0
VERTEX
  5
B8
330
AB
100
AcDbEntity
  8
VRSTVA_1
 62
     7
100
AcDbVertex
100
AcDb2dVertex
 10
65.7379340113433
 20
-148.4345228036032
 30
0.0
  0
VERTEX
  5
B9
330
AB
100
AcDbEntity
  8
VRSTVA_1
 62
     7
100
AcDbVertex
100
AcDb2dVertex
 10
66.85965710134064
 20
-148.4345228036032
 30
0.0
  0
VERTEX
  5
BA
330
AB
100
AcDbEntity
  8
VRSTVA_1
 62
     7
100
AcDbVertex
100
AcDb2dVertex
 10
68.04476994826659
 20
-148.4345228036032
 30
0.0
  0
VERTEX
  5
BB
330
AB
100
AcDbEntity
  8
VRSTVA_1
 62
     7
100
AcDbVertex
100
AcDb2dVertex
 10
69.28776039934473
 20
-148.4345228036032
 30
0.0
  0
VERTEX
  5
BC
330
AB
100
AcDbEntity
  8
VRSTVA_1
 62
     7
100
AcDbVertex
100
AcDb2dVertex
 10
70.58208277315309
 20
-148.4345228036032
 30
0.0
  0
VERTEX
  5
BD
330
AB
100
AcDbEntity
  8
VRSTVA_1
 62
     7
100
AcDbVertex
100
AcDb2dVertex
 10
71.92205266214101
 20
-148.4345228036032
 30
0.0
  0
VERTEX
  5
BE
330
AB
100
AcDbEntity
  8
VRSTVA_1
 62
     7
100
AcDbVertex
100
AcDb2dVertex
 10
73.30095213011226
 20
-148.4345228036032
 30
0.0
  0
VERTEX
  5
BF
330
AB
100
AcDbEntity
  8
VRSTVA_1
 62
     7
100
AcDbVertex
100
AcDb2dVertex
 10
74.71223549564486
 20
-148.4345228036032
 30
0.0
  0
VERTEX
  5
C0
330
AB
100
AcDbEntity
  8
VRSTVA_1
 62
     7
100
AcDbVertex
100
AcDb2dVertex
 10
76.14935707731684
 20
-148.4345228036032
 30
0.0
  0
VERTEX
  5
C1
330
AB
100
AcDbEntity
  8
VRSTVA_1
 62
     7
100
AcDbVertex
100
AcDb2dVertex
 10
77.60508217460915
 20
-148.4345228036032
 30
0.0
  0
VERTEX
  5
C2
330
AB
100
AcDbEntity
  8
VRSTVA_1
 62
     7
100
AcDbVertex
100
AcDb2dVertex
 10
79.07252059655131
 20
-148.4345228036032
 30
0.0
  0
VERTEX
  5
C3
330
AB
100
AcDbEntity
  8
VRSTVA_1
 62
     7
100
AcDbVertex
100
AcDb2dVertex
 10
80.54478215217284
 20
-148.4345228036032
 30
0.0
  0
VERTEX
  5
C4
330
AB
100
AcDbEntity
  8
VRSTVA_1
 62
     7
100
AcDbVertex
100
AcDb2dVertex
 10
82.01463214095467
 20
-148.4345228036032
 30
0.0
  0
VERTEX
  5
C5
330
AB
100
AcDbEntity
  8
VRSTVA_1
 62
     7
100
AcDbVertex
100
AcDb2dVertex
 10
83.47518037192634
 20
-148.4345228036032
 30
0.0
  0
VERTEX
  5
C6
330
AB
100
AcDbEntity
  8
VRSTVA_1
 62
     7
100
AcDbVertex
100
AcDb2dVertex
 10
84.91919214456881
 20
-148.4345228036032
 30
0.0
  0
VERTEX
  5
C7
330
AB
100
AcDbEntity
  8
VRSTVA_1
 62
     7
100
AcDbVertex
100
AcDb2dVertex
 10
86.33977726791159
 20
-148.4345228036032
 30
0.0
  0
VERTEX
  5
C8
330
AB
100
AcDbEntity
  8
VRSTVA_1
 62
     7
100
AcDbVertex
100
AcDb2dVertex
 10
87.73039006053268
 20
-148.4345228036032
 30
0.0
  0
VERTEX
  5
C9
330
AB
100
AcDbEntity
  8
VRSTVA_1
 62
     7
100
AcDbVertex
100
AcDb2dVertex
 10
89.08396807668734
 20
-148.4345228036032
 30
0.0
  0
VERTEX
  5
CA
330
AB
100
AcDbEntity
  8
VRSTVA_1
 62
     7
100
AcDbVertex
100
AcDb2dVertex
 10
90.39431014450211
 20
-148.4345228036032
 30
0.0
  0
VERTEX
  5
CB
330
AB
100
AcDbEntity
  8
VRSTVA_1
 62
     7
100
AcDbVertex
100
AcDb2dVertex
 10
91.6550428373293
 20
-148.4345228036032
 30
0.0
  0
VERTEX
  5
CC
330
AB
100
AcDbEntity
  8
VRSTVA_1
 62
     7
100
AcDbVertex
100
AcDb2dVertex
 10
92.85996498329543
 20
-148.4345228036032
 30
0.0
  0
VERTEX
  5
CD
330
AB
100
AcDbEntity
  8
VRSTVA_1
 62
     7
100
AcDbVertex
100
AcDb2dVertex
 10
94.00339217484985
 20
-148.4345228036032
 30
0.0
  0
VERTEX
  5
CE
330
AB
100
AcDbEntity
  8
VRSTVA_1
 62
     7
100
AcDbVertex
100
AcDb2dVertex
 10
95.07998451399042
 20
-148.4345228036032
 30
0.0
  0
SEQEND
  5
CF
330
AB
100
AcDbEntity
  8
VRSTVA_1
  0
POLYLINE
  5
D0
330
1F
100
AcDbEntity
  8
VRSTVA_1
 62
     7
100
AcDb2dPolyline
 66
     1
 10
0.0
 20
0.0
 30
0.0
  0
VERTEX
  5
D1
330
D0
100
AcDbEntity
  8
VRSTVA_1
 62
     7
100
AcDbVertex
100
AcDb2dVertex
 10
95.07998451399042
 20
-148.4345228036032
 30
0.0
  0
VERTEX
  5
D2
330
D0
100
AcDbEntity
  8
VRSTVA_1
 62
     7
100
AcDbVertex
100
AcDb2dVertex
 10
96.11351315956537
 20
-148.4345228036032
 30
0.0
  0
VERTEX
  5
D3
330
D0
100
AcDbEntity
  8
VRSTVA_1
 62
     7
100
AcDbVertex
100
AcDb2dVertex
 10
97.0653930421399
 20
-148.4345228036032
 30
0.0
  0
VERTEX
  5
D4
330
D0
100
AcDbEntity
  8
VRSTVA_1
 62
     7
100
AcDbVertex
100
AcDb2dVertex
 10
97.93045651848614
 20
-148.4345228036032
 30
0.0
  0
VERTEX
  5
D5
330
D0
100
AcDbEntity
  8
VRSTVA_1
 62
     7
100
AcDbVertex
100
AcDb2dVertex
 10
98.70456947402178
 20
-148.4345228036032
 30
0.0
  0
VERTEX
  5
D6
330
D0
100
AcDbEntity
  8
VRSTVA_1
 62
     7
100
AcDbVertex
100
AcDb2dVertex
 10
99.38359779416452
 20
-148.4345228036032
 30
0.0
  0
VERTEX
  5
D7
330
D0
100
AcDbEntity
  8
VRSTVA_1
 62
     7
100
AcDbVertex
100
AcDb2dVertex
 10
99.96409638342912
 20
-148.4345228036032
 30
0.0
  0
VERTEX
  5
D8
330
D0
100
AcDbEntity
  8
VRSTVA_1
 62
     7
100
AcDbVertex
100
AcDb2dVertex
 10
100.4433091654274
 20
-148.4345228036032
 30
0.0
  0
VERTEX
  5
D9
330
D0
100
AcDbEntity
  8
VRSTVA_1
 62
     7
100
AcDbVertex
100
AcDb2dVertex
 10
100.8184800637711
 20
-148.4345228036032
 30
0.0
  0
VERTEX
  5
DA
330
D0
100
AcDbEntity
  8
VRSTVA_1
 62
     7
100
AcDbVertex
100
AcDb2dVertex
 10
101.0877142759434
 20
-148.4345228036032
 30
0.0
  0
VERTEX
  5
DB
330
D0
100
AcDbEntity
  8
VRSTVA_1
 62
     7
100
AcDbVertex
100
AcDb2dVertex
 10
101.2498060185244
 20
-148.4345228036032
 30
0.0
  0
VERTEX
  5
DC
330
D0
100
AcDbEntity
  8
VRSTVA_1
 62
     7
100
AcDbVertex
100
AcDb2dVertex
 10
101.3038940176428
 20
-148.4345228036032
 30
0.0
  0
SEQEND
  5
DD
330
D0
100
AcDbEntity
  8
VRSTVA_1
  0
POLYLINE
  5
DE
330
1F
100
AcDbEntity
  8
VRSTVA_1
 62
     7
100
AcDb2dPolyline
 66
     1
 10
0.0
 20
0.0
 30
0.0
  0
VERTEX
  5
DF
330
DE
100
AcDbEntity
  8
VRSTVA_1
 62
     7
100
AcDbVertex
100
AcDb2dVertex
 10
101.3038940176428
 20
-148.4345228036032
 30
0.0
  0
VERTEX
  5
E0
330
DE
100
AcDbEntity
  8
VRSTVA_1
 62
     7
100
AcDbVertex
100
AcDb2dVertex
 10
101.3038940176428
 20
-148.1845811261483
 30
0.0
  0
SEQEND
  5
E1
330
DE
100
AcDbEntity
  8
VRSTVA_1
  0
POLYLINE
  5
E2
330
1F
100
AcDbEntity
  8
VRSTVA_1
 62
     7
100
AcDb2dPolyline
 66
     1
 10
0.0
 20
0.0
 30
0.0
  0
VERTEX
  5
E3
330
E2
100
AcDbEntity
  8
VRSTVA_1
 62
     7
100
AcDbVertex
100
AcDb2dVertex
 10
58.80399032818095
 20
-148.1845811261483
 30
0.0
  0
VERTEX
  5
E4
330
E2
100
AcDbEntity
  8
VRSTVA_1
 62
     7
100
AcDbVertex
100
AcDb2dVertex
 10
58.80399032818095
 20
-148.4345228036032
 30
0.0
  0
SEQEND
  5
E5
330
E2
100
AcDbEntity
  8
VRSTVA_1
  0
POLYLINE
  5
E6
330
1F
100
AcDbEntity
  8
VRSTVA_1
 62
     7
100
AcDb2dPolyline
 66
     1
 10
0.0
 20
0.0
 30
0.0
  0
VERTEX
  5
E7
330
E6
100
AcDbEntity
  8
VRSTVA_1
 62
     7
100
AcDbVertex
100
AcDb2dVertex
 10
56.05394285708027
 20
-123.9846801447851
 30
0.0
  0
VERTEX
  5
E8
330
E6
100
AcDbEntity
  8
VRSTVA_1
 62
     7
100
AcDbVertex
100
AcDb2dVertex
 10
56.05394285708027
 20
-147.1846421615545
 30
0.0
  0
SEQEND
  5
E9
330
E6
100
AcDbEntity
  8
VRSTVA_1
  0
POLYLINE
  5
EA
330
1F
100
AcDbEntity
  8
VRSTVA_1
 62
     7
100
AcDb2dPolyline
 66
     1
 10
0.0
 20
0.0
 30
0.0
  0
VERTEX
  5
EB
330
EA
100
AcDbEntity
  8
VRSTVA_1
 62
     7
100
AcDbVertex
100
AcDb2dVertex
 10
104.0539414887435
 20
-147.1846421615545
 30
0.0
  0
VERTEX
  5
EC
330
EA
100
AcDbEntity
  8
VRSTVA_1
 62
     7
100
AcDbVertex
100
AcDb2dVertex
 10
104.0539414887435
 20
-123.9846801447851
 30
0.0
  0
SEQEND
  5
ED
330
EA
100
AcDbEntity
  8
VRSTVA_1
  0
POLYLINE
  5
EE
330
1F
100
AcDbEntity
  8
VRSTVA_1
 62
     7
100
AcDb2dPolyline
 66
     1
 10
0.0
 20
0.0
 30
0.0
  0
VERTEX
  5
EF
330
EE
100
AcDbEntity
  8
VRSTVA_1
 62
     7
100
AcDbVertex
100
AcDb2dVertex
 10
103.4765434854156
 20
-148.1845811261483
 30
0.0
  0
VERTEX
  5
F0
330
EE
100
AcDbEntity
  8
VRSTVA_1
 62
     7
100
AcDbVertex
100
AcDb2dVertex
 10
103.4234890149427
 20
-148.1845811261483
 30
0.0
  0
VERTEX
  5
F1
330
EE
100
AcDbEntity
  8
VRSTVA_1
 62
     7
100
AcDbVertex
100
AcDb2dVertex
 10
103.2644978582985
 20
-148.1845811261483
 30
0.0
  0
VERTEX
  5
F2
330
EE
100
AcDbEntity
  8
VRSTVA_1
 62
     7
100
AcDbVertex
100
AcDb2dVertex
 10
103.0006035441283
 20
-148.1845811261483
 30
0.0
  0
VERTEX
  5
F3
330
EE
100
AcDbEntity
  8
VRSTVA_1
 62
     7
100
AcDbVertex
100
AcDb2dVertex
 10
102.6326673463036
 20
-148.1845811261483
 30
0.0
  0
VERTEX
  5
F4
330
EE
100
AcDbEntity
  8
VRSTVA_1
 62
     7
100
AcDbVertex
100
AcDb2dVertex
 10
102.1620673030185
 20
-148.1845811261483
 30
0.0
  0
VERTEX
  5
F5
330
EE
100
AcDbEntity
  8
VRSTVA_1
 62
     7
100
AcDbVertex
100
AcDb2dVertex
 10
101.5917317454354
 20
-148.1845811261483
 30
0.0
  0
VERTEX
  5
F6
330
EE
100
AcDbEntity
  8
VRSTVA_1
 62
     7
100
AcDbVertex
100
AcDb2dVertex
 10
100.9237277308455
 20
-148.1845811261483
 30
0.0
  0
VERTEX
  5
F7
330
EE
100
AcDbEntity
  8
VRSTVA_1
 62
     7
100
AcDbVertex
100
AcDb2dVertex
 10
100.1611558451854
 20
-148.1845811261483
 30
0.0
  0
VERTEX
  5
F8
330
EE
100
AcDbEntity
  8
VRSTVA_1
 62
     7
100
AcDbVertex
100
AcDb2dVertex
 10
99.3074611839405
 20
-148.1845811261483
 30
0.0
  0
VERTEX
  5
F9
330
EE
100
AcDbEntity
  8
VRSTVA_1
 62
     7
100
AcDbVertex
100
AcDb2dVertex
 10
98.36660560691877
 20
-148.1845811261483
 30
0.0
  0
VERTEX
  5
FA
330
EE
100
AcDbEntity
  8
VRSTVA_1
 62
     7
100
AcDbVertex
100
AcDb2dVertex
 10
97.34272322870252
 20
-148.1845811261483
 30
0.0
  0
VERTEX
  5
FB
330
EE
100
AcDbEntity
  8
VRSTVA_1
 62
     7
100
AcDbVertex
100
AcDb2dVertex
 10
96.24029267342257
 20
-148.1845811261483
 30
0.0
  0
VERTEX
  5
FC
330
EE
100
AcDbEntity
  8
VRSTVA_1
 62
     7
100
AcDbVertex
100
AcDb2dVertex
 10
95.06482609385533
 20
-148.1845811261483
 30
0.0
  0
VERTEX
  5
FD
330
EE
100
AcDbEntity
  8
VRSTVA_1
 62
     7
100
AcDbVertex
100
AcDb2dVertex
 10
93.82149113322866
 20
-148.1845811261483
 30
0.0
  0
VERTEX
  5
FE
330
EE
100
AcDbEntity
  8
VRSTVA_1
 62
     7
100
AcDbVertex
100
AcDb2dVertex
 10
92.51562768954471
 20
-148.1845811261483
 30
0.0
  0
VERTEX
  5
FF
330
EE
100
AcDbEntity
  8
VRSTVA_1
 62
     7
100
AcDbVertex
100
AcDb2dVertex
 10
91.15326467990266
 20
-148.1845811261483
 30
0.0
  0
VERTEX
  5
100
330
EE
100
AcDbEntity
  8
VRSTVA_1
 62
     7
100
AcDbVertex
100
AcDb2dVertex
 10
89.74077553095023
 20
-148.1845811261483
 30
0.0
  0
VERTEX
  5
101
330
EE
100
AcDbEntity
  8
VRSTVA_1
 62
     7
100
AcDbVertex
100
AcDb2dVertex
 10
88.28401690501234
 20
-148.1845811261483
 30
0.0
  0
VERTEX
  5
102
330
EE
100
AcDbEntity
  8
VRSTVA_1
 62
     7
100
AcDbVertex
100
AcDb2dVertex
 10
86.79039575738227
 20
-148.1845811261483
 30
0.0
  0
VERTEX
  5
103
330
EE
100
AcDbEntity
  8
VRSTVA_1
 62
     7
100
AcDbVertex
100
AcDb2dVertex
 10
85.2659410051592
 20
-148.1845811261483
 30
0.0
  0
VERTEX
  5
104
330
EE
100
AcDbEntity
  8
VRSTVA_1
 62
     7
100
AcDbVertex
100
AcDb2dVertex
 10
83.71805960363646
 20
-148.1845811261483
 30
0.0
  0
VERTEX
  5
105
330
EE
100
AcDbEntity
  8
VRSTVA_1
 62
     7
100
AcDbVertex
100
AcDb2dVertex
 10
82.1536417437845
 20
-148.1845811261483
 30
0.0
  0
VERTEX
  5
106
330
EE
100
AcDbEntity
  8
VRSTVA_1
 62
     7
100
AcDbVertex
100
AcDb2dVertex
 10
80.57957761657386
 20
-148.1845811261483
 30
0.0
  0
VERTEX
  5
107
330
EE
100
AcDbEntity
  8
VRSTVA_1
 62
     7
100
AcDbVertex
100
AcDb2dVertex
 10
79.00310192252353
 20
-148.1845811261483
 30
0.0
  0
VERTEX
  5
108
330
EE
100
AcDbEntity
  8
VRSTVA_1
 62
     7
100
AcDbVertex
100
AcDb2dVertex
 10
77.43144936215256
 20
-148.1845811261483
 30
0.0
  0
VERTEX
  5
109
330
EE
100
AcDbEntity
  8
VRSTVA_1
 62
     7
100
AcDbVertex
100
AcDb2dVertex
 10
75.87168238120569
 20
-148.1845811261483
 30
0.0
  0
VERTEX
  5
10A
330
EE
100
AcDbEntity
  8
VRSTVA_1
 62
     7
100
AcDbVertex
100
AcDb2dVertex
 10
74.33086342542771
 20
-148.1845811261483
 30
0.0
  0
VERTEX
  5
10B
330
EE
100
AcDbEntity
  8
VRSTVA_1
 62
     7
100
AcDbVertex
100
AcDb2dVertex
 10
72.81588268578909
 20
-148.1845811261483
 30
0.0
  0
VERTEX
  5
10C
330
EE
100
AcDbEntity
  8
VRSTVA_1
 62
     7
100
AcDbVertex
100
AcDb2dVertex
 10
71.33397486280887
 20
-148.1845811261483
 30
0.0
  0
VERTEX
  5
10D
330
EE
100
AcDbEntity
  8
VRSTVA_1
 62
     7
100
AcDbVertex
100
AcDb2dVertex
 10
69.8913411283605
 20
-148.1845811261483
 30
0.0
  0
VERTEX
  5
10E
330
EE
100
AcDbEntity
  8
VRSTVA_1
 62
     7
100
AcDbVertex
100
AcDb2dVertex
 10
68.49469941864022
 20
-148.1845811261483
 30
0.0
  0
VERTEX
  5
10F
330
EE
100
AcDbEntity
  8
VRSTVA_1
 62
     7
100
AcDbVertex
100
AcDb2dVertex
 10
67.15042316029573
 20
-148.1845811261483
 30
0.0
  0
VERTEX
  5
110
330
EE
100
AcDbEntity
  8
VRSTVA_1
 62
     7
100
AcDbVertex
100
AcDb2dVertex
 10
65.86471352520049
 20
-148.1845811261483
 30
0.0
  0
VERTEX
  5
111
330
EE
100
AcDbEntity
  8
VRSTVA_1
 62
     7
100
AcDbVertex
100
AcDb2dVertex
 10
64.64342717567942
 20
-148.1845811261483
 30
0.0
  0
VERTEX
  5
112
330
EE
100
AcDbEntity
  8
VRSTVA_1
 62
     7
100
AcDbVertex
100
AcDb2dVertex
 10
63.4917317549604
 20
-148.1845811261483
 30
0.0
  0
SEQEND
  5
113
330
EE
100
AcDbEntity
  8
VRSTVA_1
  0
POLYLINE
  5
114
330
1F
100
AcDbEntity
  8
VRSTVA_1
 62
     7
100
AcDb2dPolyline
 66
     1
 10
0.0
 20
0.0
 30
0.0
  0
VERTEX
  5
115
330
114
100
AcDbEntity
  8
VRSTVA_1
 62
     7
100
AcDbVertex
100
AcDb2dVertex
 10
63.4917317549604
 20
-148.1845811261483
 30
0.0
  0
VERTEX
  5
116
330
114
100
AcDbEntity
  8
VRSTVA_1
 62
     7
100
AcDbVertex
100
AcDb2dVertex
 10
62.35209416843976
 20
-148.1845811261483
 30
0.0
  0
VERTEX
  5
117
330
114
100
AcDbEntity
  8
VRSTVA_1
 62
     7
100
AcDbVertex
100
AcDb2dVertex
 10
61.30323484795544
 20
-148.1845811261483
 30
0.0
  0
VERTEX
  5
118
330
114
100
AcDbEntity
  8
VRSTVA_1
 62
     7
100
AcDbVertex
100
AcDb2dVertex
 10
60.34946016286403
 20
-148.1845811261483
 30
0.0
  0
VERTEX
  5
119
330
114
100
AcDbEntity
  8
VRSTVA_1
 62
     7
100
AcDbVertex
100
AcDb2dVertex
 10
59.49628226594191
 20
-148.1845811261483
 30
0.0
  0
VERTEX
  5
11A
330
114
100
AcDbEntity
  8
VRSTVA_1
 62
     7
100
AcDbVertex
100
AcDb2dVertex
 10
58.74783527177138
 20
-148.1845811261483
 30
0.0
  0
VERTEX
  5
11B
330
114
100
AcDbEntity
  8
VRSTVA_1
 62
     7
100
AcDbVertex
100
AcDb2dVertex
 10
58.10808104016049
 20
-148.1845811261483
 30
0.0
  0
VERTEX
  5
11C
330
114
100
AcDbEntity
  8
VRSTVA_1
 62
     7
100
AcDbVertex
100
AcDb2dVertex
 10
57.57994790227168
 20
-148.1845811261483
 30
0.0
  0
VERTEX
  5
11D
330
114
100
AcDbEntity
  8
VRSTVA_1
 62
     7
100
AcDbVertex
100
AcDb2dVertex
 10
57.1665364440417
 20
-148.1845811261483
 30
0.0
  0
VERTEX
  5
11E
330
114
100
AcDbEntity
  8
VRSTVA_1
 62
     7
100
AcDbVertex
100
AcDb2dVertex
 10
56.86974146798743
 20
-148.1845811261483
 30
0.0
  0
VERTEX
  5
11F
330
114
100
AcDbEntity
  8
VRSTVA_1
 62
     7
100
AcDbVertex
100
AcDb2dVertex
 10
56.69111326707723
 20
-148.1845811261483
 30
0.0
  0
VERTEX
  5
120
330
114
100
AcDbEntity
  8
VRSTVA_1
 62
     7
100
AcDbVertex
100
AcDb2dVertex
 10
56.63116860563387
 20
-148.1845811261483
 30
0.0
  0
SEQEND
  5
121
330
114
100
AcDbEntity
  8
VRSTVA_1
  0
POLYLINE
  5
122
330
1F
100
AcDbEntity
  8
VRSTVA_1
 62
     7
100
AcDb2dPolyline
 66
     1
 10
0.0
 20
0.0
 30
0.0
  0
VERTEX
  5
123
330
122
100
AcDbEntity
  8
VRSTVA_1
 62
     7
100
AcDbVertex
100
AcDb2dVertex
 10
56.05394285708027
 20
-147.1846421615545
 30
0.0
  0
VERTEX
  5
124
330
122
100
AcDbEntity
  8
VRSTVA_1
 62
     7
100
AcDbVertex
100
AcDb2dVertex
 10
56.10544703458475
 20
-147.1846421615545
 30
0.0
  0
VERTEX
  5
125
330
122
100
AcDbEntity
  8
VRSTVA_1
 62
     7
100
AcDbVertex
100
AcDb2dVertex
 10
56.25909829322689
 20
-147.1846421615545
 30
0.0
  0
VERTEX
  5
126
330
122
100
AcDbEntity
  8
VRSTVA_1
 62
     7
100
AcDbVertex
100
AcDb2dVertex
 10
56.51506888778096
 20
-147.1846421615545
 30
0.0
  0
VERTEX
  5
127
330
122
100
AcDbEntity
  8
VRSTVA_1
 62
     7
100
AcDbVertex
100
AcDb2dVertex
 10
56.87180852527858
 20
-147.1846421615545
 30
0.0
  0
VERTEX
  5
128
330
122
100
AcDbEntity
  8
VRSTVA_1
 62
     7
100
AcDbVertex
100
AcDb2dVertex
 10
57.32759465797713
 20
-147.1846421615545
 30
0.0
  0
VERTEX
  5
129
330
122
100
AcDbEntity
  8
VRSTVA_1
 62
     7
100
AcDbVertex
100
AcDb2dVertex
 10
57.88070473813399
 20
-147.1846421615545
 30
0.0
  0
VERTEX
  5
12A
330
122
100
AcDbEntity
  8
VRSTVA_1
 62
     7
100
AcDbVertex
100
AcDb2dVertex
 10
58.52907170845801
 20
-147.1846421615545
 30
0.0
  0
VERTEX
  5
12B
330
122
100
AcDbEntity
  8
VRSTVA_1
 62
     7
100
AcDbVertex
100
AcDb2dVertex
 10
59.26925047346394
 20
-147.1846421615545
 30
0.0
  0
VERTEX
  5
12C
330
122
100
AcDbEntity
  8
VRSTVA_1
 62
     7
100
AcDbVertex
100
AcDb2dVertex
 10
60.09865721153784
 20
-147.1846421615545
 30
0.0
  0
VERTEX
  5
12D
330
122
100
AcDbEntity
  8
VRSTVA_1
 62
     7
100
AcDbVertex
100
AcDb2dVertex
 10
61.01333006287167
 20
-147.1846421615545
 30
0.0
  0
VERTEX
  5
12E
330
122
100
AcDbEntity
  8
VRSTVA_1
 62
     7
100
AcDbVertex
100
AcDb2dVertex
 10
62.00982393198019
 20
-147.1846421615545
 30
0.0
  0
VERTEX
  5
12F
330
122
100
AcDbEntity
  8
VRSTVA_1
 62
     7
100
AcDbVertex
100
AcDb2dVertex
 10
63.08331568518403
 20
-147.1846421615545
 30
0.0
  0
SEQEND
  5
130
330
122
100
AcDbEntity
  8
VRSTVA_1
  0
POLYLINE
  5
131
330
1F
100
AcDbEntity
  8
VRSTVA_1
 62
     7
100
AcDb2dPolyline
 66
     1
 10
0.0
 20
0.0
 30
0.0
  0
VERTEX
  5
132
330
131
100
AcDbEntity
  8
VRSTVA_1
 62
     7
100
AcDbVertex
100
AcDb2dVertex
 10
63.08331568518403
 20
-147.1846421615545
 30
0.0
  0
VERTEX
  5
133
330
131
100
AcDbEntity
  8
VRSTVA_1
 62
     7
100
AcDbVertex
100
AcDb2dVertex
 10
64.22967120790092
 20
-147.1846421615545
 30
0.0
  0
VERTEX
  5
134
330
131
100
AcDbEntity
  8
VRSTVA_1
 62
     7
100
AcDbVertex
100
AcDb2dVertex
 10
65.44372285690297
 20
-147.1846421615545
 30
0.0
  0
VERTEX
  5
135
330
131
100
AcDbEntity
  8
VRSTVA_1
 62
     7
100
AcDbVertex
100
AcDb2dVertex
 10
66.72030298896229
 20
-147.1846421615545
 30
0.0
  0
VERTEX
  5
136
330
131
100
AcDbEntity
  8
VRSTVA_1
 62
     7
100
AcDbVertex
100
AcDb2dVertex
 10
68.05407170607677
 20
-147.1846421615545
 30
0.0
  0
VERTEX
  5
137
330
131
100
AcDbEntity
  8
VRSTVA_1
 62
     7
100
AcDbVertex
100
AcDb2dVertex
 10
69.4390000911472
 20
-147.1846421615545
 30
0.0
  0
VERTEX
  5
138
330
131
100
AcDbEntity
  8
VRSTVA_1
 62
     7
100
AcDbVertex
100
AcDb2dVertex
 10
70.86940373662293
 20
-147.1846421615545
 30
0.0
  0
VERTEX
  5
139
330
131
100
AcDbEntity
  8
VRSTVA_1
 62
     7
100
AcDbVertex
100
AcDb2dVertex
 10
72.33942598017903
 20
-147.1846421615545
 30
0.0
  0
VERTEX
  5
13A
330
131
100
AcDbEntity
  8
VRSTVA_1
 62
     7
100
AcDbVertex
100
AcDb2dVertex
 10
73.84234888561927
 20
-147.1846421615545
 30
0.0
  0
VERTEX
  5
13B
330
131
100
AcDbEntity
  8
VRSTVA_1
 62
     7
100
AcDbVertex
100
AcDb2dVertex
 10
75.37179902629595
 20
-147.1846421615545
 30
0.0
  0
VERTEX
  5
13C
330
131
100
AcDbEntity
  8
VRSTVA_1
 62
     7
100
AcDbVertex
100
AcDb2dVertex
 10
76.92140297556132
 20
-147.1846421615545
 30
0.0
  0
VERTEX
  5
13D
330
131
100
AcDbEntity
  8
VRSTVA_1
 62
     7
100
AcDbVertex
100
AcDb2dVertex
 10
78.4842705424449
 20
-147.1846421615545
 30
0.0
  0
VERTEX
  5
13E
330
131
100
AcDbEntity
  8
VRSTVA_1
 62
     7
100
AcDbVertex
100
AcDb2dVertex
 10
80.05385604552474
 20
-147.1846421615545
 30
0.0
  0
VERTEX
  5
13F
330
131
100
AcDbEntity
  8
VRSTVA_1
 62
     7
100
AcDbVertex
100
AcDb2dVertex
 10
81.62361380337882
 20
-147.1846421615545
 30
0.0
  0
VERTEX
  5
140
330
131
100
AcDbEntity
  8
VRSTVA_1
 62
     7
100
AcDbVertex
100
AcDb2dVertex
 10
83.18648137026241
 20
-147.1846421615545
 30
0.0
  0
VERTEX
  5
141
330
131
100
AcDbEntity
  8
VRSTVA_1
 62
     7
100
AcDbVertex
100
AcDb2dVertex
 10
84.73608531952779
 20
-147.1846421615545
 30
0.0
  0
VERTEX
  5
142
330
131
100
AcDbEntity
  8
VRSTVA_1
 62
     7
100
AcDbVertex
100
AcDb2dVertex
 10
86.26570771497872
 20
-147.1846421615545
 30
0.0
  0
VERTEX
  5
143
330
131
100
AcDbEntity
  8
VRSTVA_1
 62
     7
100
AcDbVertex
100
AcDb2dVertex
 10
87.76845836564469
 20
-147.1846421615545
 30
0.0
  0
VERTEX
  5
144
330
131
100
AcDbEntity
  8
VRSTVA_1
 62
     7
100
AcDbVertex
100
AcDb2dVertex
 10
89.23830835442654
 20
-147.1846421615545
 30
0.0
  0
VERTEX
  5
145
330
131
100
AcDbEntity
  8
VRSTVA_1
 62
     7
100
AcDbVertex
100
AcDb2dVertex
 10
90.66888425467653
 20
-147.1846421615545
 30
0.0
  0
VERTEX
  5
146
330
131
100
AcDbEntity
  8
VRSTVA_1
 62
     7
100
AcDbVertex
100
AcDb2dVertex
 10
92.05398489452124
 20
-147.1846421615545
 30
0.0
  0
VERTEX
  5
147
330
131
100
AcDbEntity
  8
VRSTVA_1
 62
     7
100
AcDbVertex
100
AcDb2dVertex
 10
93.3877536116357
 20
-147.1846421615545
 30
0.0
  0
VERTEX
  5
148
330
131
100
AcDbEntity
  8
VRSTVA_1
 62
     7
100
AcDbVertex
100
AcDb2dVertex
 10
94.66416148892077
 20
-147.1846421615545
 30
0.0
  0
VERTEX
  5
149
330
131
100
AcDbEntity
  8
VRSTVA_1
 62
     7
100
AcDbVertex
100
AcDb2dVertex
 10
95.87821313792281
 20
-147.1846421615545
 30
0.0
  0
VERTEX
  5
14A
330
131
100
AcDbEntity
  8
VRSTVA_1
 62
     7
100
AcDbVertex
100
AcDb2dVertex
 10
97.02439640586543
 20
-147.1846421615545
 30
0.0
  0
VERTEX
  5
14B
330
131
100
AcDbEntity
  8
VRSTVA_1
 62
     7
100
AcDbVertex
100
AcDb2dVertex
 10
98.09823266861781
 20
-147.1846421615545
 30
0.0
  0
VERTEX
  5
14C
330
131
100
AcDbEntity
  8
VRSTVA_1
 62
     7
100
AcDbVertex
100
AcDb2dVertex
 10
99.0943820281778
 20
-147.1846421615545
 30
0.0
  0
VERTEX
  5
14D
330
131
100
AcDbEntity
  8
VRSTVA_1
 62
     7
100
AcDbVertex
100
AcDb2dVertex
 10
100.0092271342859
 20
-147.1846421615545
 30
0.0
  0
VERTEX
  5
14E
330
131
100
AcDbEntity
  8
VRSTVA_1
 62
     7
100
AcDbVertex
100
AcDb2dVertex
 10
100.8384616175855
 20
-147.1846421615545
 30
0.0
  0
VERTEX
  5
14F
330
131
100
AcDbEntity
  8
VRSTVA_1
 62
     7
100
AcDbVertex
100
AcDb2dVertex
 10
101.57898489214
 20
-147.1846421615545
 30
0.0
  0
VERTEX
  5
150
330
131
100
AcDbEntity
  8
VRSTVA_1
 62
     7
100
AcDbVertex
100
AcDb2dVertex
 10
102.2270073529155
 20
-147.1846421615545
 30
0.0
  0
VERTEX
  5
151
330
131
100
AcDbEntity
  8
VRSTVA_1
 62
     7
100
AcDbVertex
100
AcDb2dVertex
 10
102.7801174330723
 20
-147.1846421615545
 30
0.0
  0
VERTEX
  5
152
330
131
100
AcDbEntity
  8
VRSTVA_1
 62
     7
100
AcDbVertex
100
AcDb2dVertex
 10
103.2362480753194
 20
-147.1846421615545
 30
0.0
  0
VERTEX
  5
153
330
131
100
AcDbEntity
  8
VRSTVA_1
 62
     7
100
AcDbVertex
100
AcDb2dVertex
 10
103.5928154580428
 20
-147.1846421615545
 30
0.0
  0
VERTEX
  5
154
330
131
100
AcDbEntity
  8
VRSTVA_1
 62
     7
100
AcDbVertex
100
AcDb2dVertex
 10
103.8486137978226
 20
-147.1846421615545
 30
0.0
  0
VERTEX
  5
155
330
131
100
AcDbEntity
  8
VRSTVA_1
 62
     7
100
AcDbVertex
100
AcDb2dVertex
 10
104.0026095660132
 20
-147.1846421615545
 30
0.0
  0
VERTEX
  5
156
330
131
100
AcDbEntity
  8
VRSTVA_1
 62
     7
100
AcDbVertex
100
AcDb2dVertex
 10
104.0539414887435
 20
-147.1846421615545
 30
0.0
  0
SEQEND
  5
157
330
131
100
AcDbEntity
  8
VRSTVA_1
  0
POLYLINE
  5
158
330
1F
100
AcDbEntity
  8
VRSTVA_1
 62
     7
100
AcDb2dPolyline
 66
     1
 10
0.0
 20
0.0
 30
0.0
  0
VERTEX
  5
159
330
158
100
AcDbEntity
  8
VRSTVA_1
 62
     7
100
AcDbVertex
100
AcDb2dVertex
 10
103.4765434854156
 20
-148.1845811261483
 30
0.0
  0
VERTEX
  5
15A
330
158
100
AcDbEntity
  8
VRSTVA_1
 62
     7
100
AcDbVertex
100
AcDb2dVertex
 10
104.0539414887435
 20
-147.1846421615545
 30
0.0
  0
SEQEND
  5
15B
330
158
100
AcDbEntity
  8
VRSTVA_1
  0
POLYLINE
  5
15C
330
1F
100
AcDbEntity
  8
VRSTVA_1
 62
     7
100
AcDb2dPolyline
 66
     1
 10
0.0
 20
0.0
 30
0.0
  0
VERTEX
  5
15D
330
15C
100
AcDbEntity
  8
VRSTVA_1
 62
     7
100
AcDbVertex
100
AcDb2dVertex
 10
56.05394285708027
 20
-147.1846421615545
 30
0.0
  0
VERTEX
  5
15E
330
15C
100
AcDbEntity
  8
VRSTVA_1
 62
     7
100
AcDbVertex
100
AcDb2dVertex
 10
56.63116860563387
 20
-148.1845811261483
 30
0.0
  0
SEQEND
  5
15F
330
15C
100
AcDbEntity
  8
VRSTVA_1
  0
POLYLINE
  5
160
330
1F
100
AcDbEntity
  8
VRSTVA_1
 62
     7
100
AcDb2dPolyline
 66
     1
 10
0.0
 20
0.0
 30
0.0
  0
VERTEX
  5
161
330
160
100
AcDbEntity
  8
VRSTVA_1
 62
     7
100
AcDbVertex
100
AcDb2dVertex
 10
101.3038940176428
 20
-89.0846570957844
 30
0.0
  0
VERTEX
  5
162
330
160
100
AcDbEntity
  8
VRSTVA_1
 62
     7
100
AcDbVertex
100
AcDb2dVertex
 10
101.252217585364
 20
-89.0846570957844
 30
0.0
  0
VERTEX
  5
163
330
160
100
AcDbEntity
  8
VRSTVA_1
 62
     7
100
AcDbVertex
100
AcDb2dVertex
 10
101.0971882885278
 20
-89.0846570957844
 30
0.0
  0
VERTEX
  5
164
330
160
100
AcDbEntity
  8
VRSTVA_1
 62
     7
100
AcDbVertex
100
AcDb2dVertex
 10
100.8394951462311
 20
-89.0846570957844
 30
0.0
  0
VERTEX
  5
165
330
160
100
AcDbEntity
  8
VRSTVA_1
 62
     7
100
AcDbVertex
100
AcDb2dVertex
 10
100.4808607062166
 20
-89.0846570957844
 30
0.0
  0
VERTEX
  5
166
330
160
100
AcDbEntity
  8
VRSTVA_1
 62
     7
100
AcDbVertex
100
AcDb2dVertex
 10
100.0223184971298
 20
-89.0846570957844
 30
0.0
  0
VERTEX
  5
167
330
160
100
AcDbEntity
  8
VRSTVA_1
 62
     7
100
AcDbVertex
100
AcDb2dVertex
 10
99.46662459535904
 20
-89.0846570957844
 30
0.0
  0
VERTEX
  5
168
330
160
100
AcDbEntity
  8
VRSTVA_1
 62
     7
100
AcDbVertex
100
AcDb2dVertex
 10
98.8165350772924
 20
-89.0846570957844
 30
0.0
  0
VERTEX
  5
169
330
160
100
AcDbEntity
  8
VRSTVA_1
 62
     7
100
AcDbVertex
100
AcDb2dVertex
 10
98.07515052886663
 20
-89.0846570957844
 30
0.0
  0
VERTEX
  5
16A
330
160
100
AcDbEntity
  8
VRSTVA_1
 62
     7
100
AcDbVertex
100
AcDb2dVertex
 10
97.24557153601847
 20
-89.0846570957844
 30
0.0
  0
VERTEX
  5
16B
330
160
100
AcDbEntity
  8
VRSTVA_1
 62
     7
100
AcDbVertex
100
AcDb2dVertex
 10
96.332448977653
 20
-89.0846570957844
 30
0.0
  0
VERTEX
  5
16C
330
160
100
AcDbEntity
  8
VRSTVA_1
 62
     7
100
AcDbVertex
100
AcDb2dVertex
 10
95.33991696835253
 20
-89.0846570957844
 30
0.0
  0
VERTEX
  5
16D
330
160
100
AcDbEntity
  8
VRSTVA_1
 62
     7
100
AcDbVertex
100
AcDb2dVertex
 10
94.27297089657065
 20
-89.0846570957844
 30
0.0
  0
VERTEX
  5
16E
330
160
100
AcDbEntity
  8
VRSTVA_1
 62
     7
100
AcDbVertex
100
AcDb2dVertex
 10
93.13695066030952
 20
-89.0846570957844
 30
0.0
  0
VERTEX
  5
16F
330
160
100
AcDbEntity
  8
VRSTVA_1
 62
     7
100
AcDbVertex
100
AcDb2dVertex
 10
91.93685164802274
 20
-89.0846570957844
 30
0.0
  0
VERTEX
  5
170
330
160
100
AcDbEntity
  8
VRSTVA_1
 62
     7
100
AcDbVertex
100
AcDb2dVertex
 10
90.67904728635801
 20
-89.0846570957844
 30
0.0
  0
VERTEX
  5
171
330
160
100
AcDbEntity
  8
VRSTVA_1
 62
     7
100
AcDbVertex
100
AcDb2dVertex
 10
89.3693942376403
 20
-89.0846570957844
 30
0.0
  0
VERTEX
  5
172
330
160
100
AcDbEntity
  8
VRSTVA_1
 62
     7
100
AcDbVertex
100
AcDb2dVertex
 10
88.01443818329153
 20
-89.0846570957844
 30
0.0
  0
VERTEX
  5
173
330
160
100
AcDbEntity
  8
VRSTVA_1
 62
     7
100
AcDbVertex
100
AcDb2dVertex
 10
86.62055254995946
 20
-89.0846570957844
 30
0.0
  0
VERTEX
  5
174
330
160
100
AcDbEntity
  8
VRSTVA_1
 62
     7
100
AcDbVertex
100
AcDb2dVertex
 10
85.1947997833888
 20
-89.0846570957844
 30
0.0
  0
VERTEX
  5
175
330
160
100
AcDbEntity
  8
VRSTVA_1
 62
     7
100
AcDbVertex
100
AcDb2dVertex
 10
83.74389781977584
 20
-89.0846570957844
 30
0.0
  0
VERTEX
  5
176
330
160
100
AcDbEntity
  8
VRSTVA_1
 62
     7
100
AcDbVertex
100
AcDb2dVertex
 10
82.27525361441383
 20
-89.0846570957844
 30
0.0
  0
VERTEX
  5
177
330
160
100
AcDbEntity
  8
VRSTVA_1
 62
     7
100
AcDbVertex
100
AcDb2dVertex
 10
80.79558510349902
 20
-89.0846570957844
 30
0.0
  0
VERTEX
  5
178
330
160
100
AcDbEntity
  8
VRSTVA_1
 62
     7
100
AcDbVertex
100
AcDb2dVertex
 10
79.31247149709897
 20
-89.0846570957844
 30
0.0
  0
VERTEX
  5
179
330
160
100
AcDbEntity
  8
VRSTVA_1
 62
     7
100
AcDbVertex
100
AcDb2dVertex
 10
77.83280298618416
 20
-89.0846570957844
 30
0.0
  0
VERTEX
  5
17A
330
160
100
AcDbEntity
  8
VRSTVA_1
 62
     7
100
AcDbVertex
100
AcDb2dVertex
 10
76.36381427127364
 20
-89.0846570957844
 30
0.0
  0
VERTEX
  5
17B
330
160
100
AcDbEntity
  8
VRSTVA_1
 62
     7
100
AcDbVertex
100
AcDb2dVertex
 10
74.91308456243493
 20
-89.0846570957844
 30
0.0
  0
VERTEX
  5
17C
330
160
100
AcDbEntity
  8
VRSTVA_1
 62
     7
100
AcDbVertex
100
AcDb2dVertex
 10
73.48733179586428
 20
-89.0846570957844
 30
0.0
  0
VERTEX
  5
17D
330
160
100
AcDbEntity
  8
VRSTVA_1
 62
     7
100
AcDbVertex
100
AcDb2dVertex
 10
72.09361841730646
 20
-89.0846570957844
 30
0.0
  0
VERTEX
  5
17E
330
160
100
AcDbEntity
  8
VRSTVA_1
 62
     7
100
AcDbVertex
100
AcDb2dVertex
 10
70.7386623629577
 20
-89.0846570957844
 30
0.0
  0
VERTEX
  5
17F
330
160
100
AcDbEntity
  8
VRSTVA_1
 62
     7
100
AcDbVertex
100
AcDb2dVertex
 10
69.42900931423998
 20
-89.0846570957844
 30
0.0
  0
VERTEX
  5
180
330
160
100
AcDbEntity
  8
VRSTVA_1
 62
     7
100
AcDbVertex
100
AcDb2dVertex
 10
68.17120495257525
 20
-89.0846570957844
 30
0.0
  0
VERTEX
  5
181
330
160
100
AcDbEntity
  8
VRSTVA_1
 62
     7
100
AcDbVertex
100
AcDb2dVertex
 10
66.97110594028848
 20
-89.0846570957844
 30
0.0
  0
VERTEX
  5
182
330
160
100
AcDbEntity
  8
VRSTVA_1
 62
     7
100
AcDbVertex
100
AcDb2dVertex
 10
65.83508570402735
 20
-89.0846570957844
 30
0.0
  0
VERTEX
  5
183
330
160
100
AcDbEntity
  8
VRSTVA_1
 62
     7
100
AcDbVertex
100
AcDb2dVertex
 10
64.76813963224546
 20
-89.0846570957844
 30
0.0
  0
VERTEX
  5
184
330
160
100
AcDbEntity
  8
VRSTVA_1
 62
     7
100
AcDbVertex
100
AcDb2dVertex
 10
63.77560762294499
 20
-89.0846570957844
 30
0.0
  0
VERTEX
  5
185
330
160
100
AcDbEntity
  8
VRSTVA_1
 62
     7
100
AcDbVertex
100
AcDb2dVertex
 10
62.86231280980526
 20
-89.0846570957844
 30
0.0
  0
VERTEX
  5
186
330
160
100
AcDbEntity
  8
VRSTVA_1
 62
     7
100
AcDbVertex
100
AcDb2dVertex
 10
62.03307832650562
 20
-89.0846570957844
 30
0.0
  0
VERTEX
  5
187
330
160
100
AcDbEntity
  8
VRSTVA_1
 62
     7
100
AcDbVertex
100
AcDb2dVertex
 10
61.29134926853133
 20
-89.0846570957844
 30
0.0
  0
VERTEX
  5
188
330
160
100
AcDbEntity
  8
VRSTVA_1
 62
     7
100
AcDbVertex
100
AcDb2dVertex
 10
60.64108749569043
 20
-89.0846570957844
 30
0.0
  0
VERTEX
  5
189
330
160
100
AcDbEntity
  8
VRSTVA_1
 62
     7
100
AcDbVertex
100
AcDb2dVertex
 10
60.08556584869389
 20
-89.0846570957844
 30
0.0
  0
VERTEX
  5
18A
330
160
100
AcDbEntity
  8
VRSTVA_1
 62
     7
100
AcDbVertex
100
AcDb2dVertex
 10
59.6271958943814
 20
-89.0846570957844
 30
0.0
  0
VERTEX
  5
18B
330
160
100
AcDbEntity
  8
VRSTVA_1
 62
     7
100
AcDbVertex
100
AcDb2dVertex
 10
59.26821694481836
 20
-89.0846570957844
 30
0.0
  0
VERTEX
  5
18C
330
160
100
AcDbEntity
  8
VRSTVA_1
 62
     7
100
AcDbVertex
100
AcDb2dVertex
 10
59.01069605729594
 20
-89.0846570957844
 30
0.0
  0
VERTEX
  5
18D
330
160
100
AcDbEntity
  8
VRSTVA_1
 62
     7
100
AcDbVertex
100
AcDb2dVertex
 10
58.8556667604597
 20
-89.0846570957844
 30
0.0
  0
VERTEX
  5
18E
330
160
100
AcDbEntity
  8
VRSTVA_1
 62
     7
100
AcDbVertex
100
AcDb2dVertex
 10
58.80399032818095
 20
-89.0846570957844
 30
0.0
  0
SEQEND
  5
18F
330
160
100
AcDbEntity
  8
VRSTVA_1
  0
POLYLINE
  5
190
330
1F
100
AcDbEntity
  8
VRSTVA_1
 62
     7
100
AcDb2dPolyline
 66
     1
 10
0.0
 20
0.0
 30
0.0
  0
VERTEX
  5
191
330
190
100
AcDbEntity
  8
VRSTVA_1
 62
     7
100
AcDbVertex
100
AcDb2dVertex
 10
58.80399032818095
 20
-89.0846570957844
 30
0.0
  0
VERTEX
  5
192
330
190
100
AcDbEntity
  8
VRSTVA_1
 62
     7
100
AcDbVertex
100
AcDb2dVertex
 10
58.80399032818095
 20
-89.33442651846501
 30
0.0
  0
SEQEND
  5
193
330
190
100
AcDbEntity
  8
VRSTVA_1
  0
POLYLINE
  5
194
330
1F
100
AcDbEntity
  8
VRSTVA_1
 62
     7
100
AcDb2dPolyline
 66
     1
 10
0.0
 20
0.0
 30
0.0
  0
VERTEX
  5
195
330
194
100
AcDbEntity
  8
VRSTVA_1
 62
     7
100
AcDbVertex
100
AcDb2dVertex
 10
101.3038940176428
 20
-89.33442651846501
 30
0.0
  0
VERTEX
  5
196
330
194
100
AcDbEntity
  8
VRSTVA_1
 62
     7
100
AcDbVertex
100
AcDb2dVertex
 10
101.3038940176428
 20
-89.0846570957844
 30
0.0
  0
SEQEND
  5
197
330
194
100
AcDbEntity
  8
VRSTVA_1
  0
POLYLINE
  5
198
330
1F
100
AcDbEntity
  8
VRSTVA_1
 62
     7
100
AcDb2dPolyline
 66
     1
 10
0.0
 20
0.0
 30
0.0
  0
VERTEX
  5
199
330
198
100
AcDbEntity
  8
VRSTVA_1
 62
     7
100
AcDbVertex
100
AcDb2dVertex
 10
56.63116860563387
 20
-89.33442651846501
 30
0.0
  0
VERTEX
  5
19A
330
198
100
AcDbEntity
  8
VRSTVA_1
 62
     7
100
AcDbVertex
100
AcDb2dVertex
 10
56.68594562384935
 20
-89.33442651846501
 30
0.0
  0
VERTEX
  5
19B
330
198
100
AcDbEntity
  8
VRSTVA_1
 62
     7
100
AcDbVertex
100
AcDb2dVertex
 10
56.84941540462445
 20
-89.33442651846501
 30
0.0
  0
VERTEX
  5
19C
330
198
100
AcDbEntity
  8
VRSTVA_1
 62
     7
100
AcDbVertex
100
AcDb2dVertex
 10
57.12123343841067
 20
-89.33442651846501
 30
0.0
  0
VERTEX
  5
19D
330
198
100
AcDbEntity
  8
VRSTVA_1
 62
     7
100
AcDbVertex
100
AcDb2dVertex
 10
57.50002168701388
 20
-89.33442651846501
 30
0.0
  0
VERTEX
  5
19E
330
198
100
AcDbEntity
  8
VRSTVA_1
 62
     7
100
AcDbVertex
100
AcDb2dVertex
 10
57.98371309314296
 20
-89.33442651846501
 30
0.0
  0
VERTEX
  5
19F
330
198
100
AcDbEntity
  8
VRSTVA_1
 62
     7
100
AcDbVertex
100
AcDb2dVertex
 10
58.57041285428101
 20
-89.33442651846501
 30
0.0
  0
VERTEX
  5
1A0
330
198
100
AcDbEntity
  8
VRSTVA_1
 62
     7
100
AcDbVertex
100
AcDb2dVertex
 10
59.25736489403983
 20
-89.33442651846501
 30
0.0
  0
VERTEX
  5
1A1
330
198
100
AcDbEntity
  8
VRSTVA_1
 62
     7
100
AcDbVertex
100
AcDb2dVertex
 10
60.04112411693416
 20
-89.33442651846501
 30
0.0
  0
VERTEX
  5
1A2
330
198
100
AcDbEntity
  8
VRSTVA_1
 62
     7
100
AcDbVertex
100
AcDb2dVertex
 10
60.91824542747877
 20
-89.33442651846501
 30
0.0
  0
VERTEX
  5
1A3
330
198
100
AcDbEntity
  8
VRSTVA_1
 62
     7
100
AcDbVertex
100
AcDb2dVertex
 10
61.88476696586562
 20
-89.33442651846501
 30
0.0
  0
VERTEX
  5
1A4
330
198
100
AcDbEntity
  8
VRSTVA_1
 62
     7
100
AcDbVertex
100
AcDb2dVertex
 10
62.93586559841534
 20
-89.33442651846501
 30
0.0
  0
VERTEX
  5
1A5
330
198
100
AcDbEntity
  8
VRSTVA_1
 62
     7
100
AcDbVertex
100
AcDb2dVertex
 10
64.0667181914486
 20
-89.33442651846501
 30
0.0
  0
VERTEX
  5
1A6
330
198
100
AcDbEntity
  8
VRSTVA_1
 62
     7
100
AcDbVertex
100
AcDb2dVertex
 10
65.27215710173752
 20
-89.33442651846501
 30
0.0
  0
VERTEX
  5
1A7
330
198
100
AcDbEntity
  8
VRSTVA_1
 62
     7
100
AcDbVertex
100
AcDb2dVertex
 10
66.54649792173143
 20
-89.33442651846501
 30
0.0
  0
VERTEX
  5
1A8
330
198
100
AcDbEntity
  8
VRSTVA_1
 62
     7
100
AcDbVertex
100
AcDb2dVertex
 10
67.88388398910543
 20
-89.33442651846501
 30
0.0
  0
VERTEX
  5
1A9
330
198
100
AcDbEntity
  8
VRSTVA_1
 62
     7
100
AcDbVertex
100
AcDb2dVertex
 10
69.27794187721177
 20
-89.33442651846501
 30
0.0
  0
VERTEX
  5
1AA
330
198
100
AcDbEntity
  8
VRSTVA_1
 62
     7
100
AcDbVertex
100
AcDb2dVertex
 10
70.72229815940277
 20
-89.33442651846501
 30
0.0
  0
VERTEX
  5
1AB
330
198
100
AcDbEntity
  8
VRSTVA_1
 62
     7
100
AcDbVertex
100
AcDb2dVertex
 10
72.21023489948217
 20
-89.33442651846501
 30
0.0
  0
VERTEX
  5
1AC
330
198
100
AcDbEntity
  8
VRSTVA_1
 62
     7
100
AcDbVertex
100
AcDb2dVertex
 10
73.73468965170522
 20
-89.33442651846501
 30
0.0
  0
VERTEX
  5
1AD
330
198
100
AcDbEntity
  8
VRSTVA_1
 62
     7
100
AcDbVertex
100
AcDb2dVertex
 10
75.2884277155529
 20
-89.33442651846501
 30
0.0
  0
VERTEX
  5
1AE
330
198
100
AcDbEntity
  8
VRSTVA_1
 62
     7
100
AcDbVertex
100
AcDb2dVertex
 10
76.86473115482896
 20
-89.33442651846501
 30
0.0
  0
VERTEX
  5
1AF
330
198
100
AcDbEntity
  8
VRSTVA_1
 62
     7
100
AcDbVertex
100
AcDb2dVertex
 10
78.45550399514308
 20
-89.33442651846501
 30
0.0
  0
VERTEX
  5
1B0
330
198
100
AcDbEntity
  8
VRSTVA_1
 62
     7
100
AcDbVertex
100
AcDb2dVertex
 10
80.05385604552474
 20
-89.33442651846501
 30
0.0
  0
SEQEND
  5
1B1
330
198
100
AcDbEntity
  8
VRSTVA_1
  0
POLYLINE
  5
1B2
330
1F
100
AcDbEntity
  8
VRSTVA_1
 62
     7
100
AcDb2dPolyline
 66
     1
 10
0.0
 20
0.0
 30
0.0
  0
VERTEX
  5
1B3
330
1B2
100
AcDbEntity
  8
VRSTVA_1
 62
     7
100
AcDbVertex
100
AcDb2dVertex
 10
80.05385604552474
 20
-89.33442651846501
 30
0.0
  0
VERTEX
  5
1B4
330
1B2
100
AcDbEntity
  8
VRSTVA_1
 62
     7
100
AcDbVertex
100
AcDb2dVertex
 10
81.65238035068066
 20
-89.33442651846501
 30
0.0
  0
VERTEX
  5
1B5
330
1B2
100
AcDbEntity
  8
VRSTVA_1
 62
     7
100
AcDbVertex
100
AcDb2dVertex
 10
83.24332544576903
 20
-89.33442651846501
 30
0.0
  0
VERTEX
  5
1B6
330
1B2
100
AcDbEntity
  8
VRSTVA_1
 62
     7
100
AcDbVertex
100
AcDb2dVertex
 10
84.81945663027084
 20
-89.33442651846501
 30
0.0
  0
VERTEX
  5
1B7
330
1B2
100
AcDbEntity
  8
VRSTVA_1
 62
     7
100
AcDbVertex
100
AcDb2dVertex
 10
86.37336694889278
 20
-89.33442651846501
 30
0.0
  0
VERTEX
  5
1B8
330
1B2
100
AcDbEntity
  8
VRSTVA_1
 62
     7
100
AcDbVertex
100
AcDb2dVertex
 10
87.89764944634156
 20
-89.33442651846501
 30
0.0
  0
VERTEX
  5
1B9
330
1B2
100
AcDbEntity
  8
VRSTVA_1
 62
     7
100
AcDbVertex
100
AcDb2dVertex
 10
89.38558618642097
 20
-89.33442651846501
 30
0.0
  0
VERTEX
  5
1BA
330
1B2
100
AcDbEntity
  8
VRSTVA_1
 62
     7
100
AcDbVertex
100
AcDb2dVertex
 10
90.8297702138377
 20
-89.33442651846501
 30
0.0
  0
VERTEX
  5
1BB
330
1B2
100
AcDbEntity
  8
VRSTVA_1
 62
     7
100
AcDbVertex
100
AcDb2dVertex
 10
92.2240003567183
 20
-89.33442651846501
 30
0.0
  0
VERTEX
  5
1BC
330
1B2
100
AcDbEntity
  8
VRSTVA_1
 62
     7
100
AcDbVertex
100
AcDb2dVertex
 10
93.56138642409229
 20
-89.33442651846501
 30
0.0
  0
VERTEX
  5
1BD
330
1B2
100
AcDbEntity
  8
VRSTVA_1
 62
     7
100
AcDbVertex
100
AcDb2dVertex
 10
94.83572724408621
 20
-89.33442651846501
 30
0.0
  0
VERTEX
  5
1BE
330
1B2
100
AcDbEntity
  8
VRSTVA_1
 62
     7
100
AcDbVertex
100
AcDb2dVertex
 10
96.04116615437513
 20
-89.33442651846501
 30
0.0
  0
VERTEX
  5
1BF
330
1B2
100
AcDbEntity
  8
VRSTVA_1
 62
     7
100
AcDbVertex
100
AcDb2dVertex
 10
97.17219100218266
 20
-89.33442651846501
 30
0.0
  0
VERTEX
  5
1C0
330
1B2
100
AcDbEntity
  8
VRSTVA_1
 62
     7
100
AcDbVertex
100
AcDb2dVertex
 10
98.22328963473238
 20
-89.33442651846501
 30
0.0
  0
VERTEX
  5
1C1
330
1B2
100
AcDbEntity
  8
VRSTVA_1
 62
     7
100
AcDbVertex
100
AcDb2dVertex
 10
99.18963891834495
 20
-89.33442651846501
 30
0.0
  0
VERTEX
  5
1C2
330
1B2
100
AcDbEntity
  8
VRSTVA_1
 62
     7
100
AcDbVertex
100
AcDb2dVertex
 10
100.0667602288896
 20
-89.33442651846501
 30
0.0
  0
VERTEX
  5
1C3
330
1B2
100
AcDbEntity
  8
VRSTVA_1
 62
     7
100
AcDbVertex
100
AcDb2dVertex
 10
100.8505194517839
 20
-89.33442651846501
 30
0.0
  0
VERTEX
  5
1C4
330
1B2
100
AcDbEntity
  8
VRSTVA_1
 62
     7
100
AcDbVertex
100
AcDb2dVertex
 10
101.5374714915427
 20
-89.33442651846501
 30
0.0
  0
VERTEX
  5
1C5
330
1B2
100
AcDbEntity
  8
VRSTVA_1
 62
     7
100
AcDbVertex
100
AcDb2dVertex
 10
102.1241712526808
 20
-89.33442651846501
 30
0.0
  0
VERTEX
  5
1C6
330
1B2
100
AcDbEntity
  8
VRSTVA_1
 62
     7
100
AcDbVertex
100
AcDb2dVertex
 10
102.6080349135841
 20
-89.33442651846501
 30
0.0
  0
VERTEX
  5
1C7
330
1B2
100
AcDbEntity
  8
VRSTVA_1
 62
     7
100
AcDbVertex
100
AcDb2dVertex
 10
102.9868231621873
 20
-89.33442651846501
 30
0.0
  0
VERTEX
  5
1C8
330
1B2
100
AcDbEntity
  8
VRSTVA_1
 62
     7
100
AcDbVertex
100
AcDb2dVertex
 10
103.258296686425
 20
-89.33442651846501
 30
0.0
  0
VERTEX
  5
1C9
330
1B2
100
AcDbEntity
  8
VRSTVA_1
 62
     7
100
AcDbVertex
100
AcDb2dVertex
 10
103.4221109767486
 20
-89.33442651846501
 30
0.0
  0
VERTEX
  5
1CA
330
1B2
100
AcDbEntity
  8
VRSTVA_1
 62
     7
100
AcDbVertex
100
AcDb2dVertex
 10
103.4765434854156
 20
-89.33442651846501
 30
0.0
  0
SEQEND
  5
1CB
330
1B2
100
AcDbEntity
  8
VRSTVA_1
  0
POLYLINE
  5
1CC
330
1F
100
AcDbEntity
  8
VRSTVA_1
 62
     7
100
AcDb2dPolyline
 66
     1
 10
0.0
 20
0.0
 30
0.0
  0
VERTEX
  5
1CD
330
1CC
100
AcDbEntity
  8
VRSTVA_1
 62
     7
100
AcDbVertex
100
AcDb2dVertex
 10
56.63116860563387
 20
-89.33442651846501
 30
0.0
  0
VERTEX
  5
1CE
330
1CC
100
AcDbEntity
  8
VRSTVA_1
 62
     7
100
AcDbVertex
100
AcDb2dVertex
 10
56.05394285708027
 20
-90.33453773783303
 30
0.0
  0
SEQEND
  5
1CF
330
1CC
100
AcDbEntity
  8
VRSTVA_1
  0
POLYLINE
  5
1D0
330
1F
100
AcDbEntity
  8
VRSTVA_1
 62
     7
100
AcDb2dPolyline
 66
     1
 10
0.0
 20
0.0
 30
0.0
  0
VERTEX
  5
1D1
330
1D0
100
AcDbEntity
  8
VRSTVA_1
 62
     7
100
AcDbVertex
100
AcDb2dVertex
 10
104.0539414887435
 20
-90.33453773783303
 30
0.0
  0
VERTEX
  5
1D2
330
1D0
100
AcDbEntity
  8
VRSTVA_1
 62
     7
100
AcDbVertex
100
AcDb2dVertex
 10
103.4765434854156
 20
-89.33442651846501
 30
0.0
  0
SEQEND
  5
1D3
330
1D0
100
AcDbEntity
  8
VRSTVA_1
  0
POLYLINE
  5
1D4
330
1F
100
AcDbEntity
  8
VRSTVA_1
 62
     7
100
AcDb2dPolyline
 66
     1
 10
0.0
 20
0.0
 30
0.0
  0
VERTEX
  5
1D5
330
1D4
100
AcDbEntity
  8
VRSTVA_1
 62
     7
100
AcDbVertex
100
AcDb2dVertex
 10
104.0539414887435
 20
-90.33453773783303
 30
0.0
  0
VERTEX
  5
1D6
330
1D4
100
AcDbEntity
  8
VRSTVA_1
 62
     7
100
AcDbVertex
100
AcDb2dVertex
 10
104.0026095660132
 20
-90.33453773783303
 30
0.0
  0
VERTEX
  5
1D7
330
1D4
100
AcDbEntity
  8
VRSTVA_1
 62
     7
100
AcDbVertex
100
AcDb2dVertex
 10
103.8486137978226
 20
-90.33453773783303
 30
0.0
  0
VERTEX
  5
1D8
330
1D4
100
AcDbEntity
  8
VRSTVA_1
 62
     7
100
AcDbVertex
100
AcDb2dVertex
 10
103.5928154580428
 20
-90.33453773783303
 30
0.0
  0
VERTEX
  5
1D9
330
1D4
100
AcDbEntity
  8
VRSTVA_1
 62
     7
100
AcDbVertex
100
AcDb2dVertex
 10
103.2362480753194
 20
-90.33453773783303
 30
0.0
  0
VERTEX
  5
1DA
330
1D4
100
AcDbEntity
  8
VRSTVA_1
 62
     7
100
AcDbVertex
100
AcDb2dVertex
 10
102.7801174330723
 20
-90.33453773783303
 30
0.0
  0
VERTEX
  5
1DB
330
1D4
100
AcDbEntity
  8
VRSTVA_1
 62
     7
100
AcDbVertex
100
AcDb2dVertex
 10
102.2270073529155
 20
-90.33453773783303
 30
0.0
  0
VERTEX
  5
1DC
330
1D4
100
AcDbEntity
  8
VRSTVA_1
 62
     7
100
AcDbVertex
100
AcDb2dVertex
 10
101.57898489214
 20
-90.33453773783303
 30
0.0
  0
VERTEX
  5
1DD
330
1D4
100
AcDbEntity
  8
VRSTVA_1
 62
     7
100
AcDbVertex
100
AcDb2dVertex
 10
100.8384616175855
 20
-90.33453773783303
 30
0.0
  0
VERTEX
  5
1DE
330
1D4
100
AcDbEntity
  8
VRSTVA_1
 62
     7
100
AcDbVertex
100
AcDb2dVertex
 10
100.0092271342859
 20
-90.33453773783303
 30
0.0
  0
VERTEX
  5
1DF
330
1D4
100
AcDbEntity
  8
VRSTVA_1
 62
     7
100
AcDbVertex
100
AcDb2dVertex
 10
99.0943820281778
 20
-90.33453773783303
 30
0.0
  0
VERTEX
  5
1E0
330
1D4
100
AcDbEntity
  8
VRSTVA_1
 62
     7
100
AcDbVertex
100
AcDb2dVertex
 10
98.09823266861781
 20
-90.33453773783303
 30
0.0
  0
VERTEX
  5
1E1
330
1D4
100
AcDbEntity
  8
VRSTVA_1
 62
     7
100
AcDbVertex
100
AcDb2dVertex
 10
97.02439640586543
 20
-90.33453773783303
 30
0.0
  0
VERTEX
  5
1E2
330
1D4
100
AcDbEntity
  8
VRSTVA_1
 62
     7
100
AcDbVertex
100
AcDb2dVertex
 10
95.87821313792281
 20
-90.33453773783303
 30
0.0
  0
VERTEX
  5
1E3
330
1D4
100
AcDbEntity
  8
VRSTVA_1
 62
     7
100
AcDbVertex
100
AcDb2dVertex
 10
94.66416148892077
 20
-90.33453773783303
 30
0.0
  0
VERTEX
  5
1E4
330
1D4
100
AcDbEntity
  8
VRSTVA_1
 62
     7
100
AcDbVertex
100
AcDb2dVertex
 10
93.3877536116357
 20
-90.33453773783303
 30
0.0
  0
VERTEX
  5
1E5
330
1D4
100
AcDbEntity
  8
VRSTVA_1
 62
     7
100
AcDbVertex
100
AcDb2dVertex
 10
92.05398489452124
 20
-90.33453773783303
 30
0.0
  0
VERTEX
  5
1E6
330
1D4
100
AcDbEntity
  8
VRSTVA_1
 62
     7
100
AcDbVertex
100
AcDb2dVertex
 10
90.66888425467653
 20
-90.33453773783303
 30
0.0
  0
VERTEX
  5
1E7
330
1D4
100
AcDbEntity
  8
VRSTVA_1
 62
     7
100
AcDbVertex
100
AcDb2dVertex
 10
89.23830835442654
 20
-90.33453773783303
 30
0.0
  0
VERTEX
  5
1E8
330
1D4
100
AcDbEntity
  8
VRSTVA_1
 62
     7
100
AcDbVertex
100
AcDb2dVertex
 10
87.76845836564469
 20
-90.33453773783303
 30
0.0
  0
VERTEX
  5
1E9
330
1D4
100
AcDbEntity
  8
VRSTVA_1
 62
     7
100
AcDbVertex
100
AcDb2dVertex
 10
86.26570771497872
 20
-90.33453773783303
 30
0.0
  0
VERTEX
  5
1EA
330
1D4
100
AcDbEntity
  8
VRSTVA_1
 62
     7
100
AcDbVertex
100
AcDb2dVertex
 10
84.73608531952779
 20
-90.33453773783303
 30
0.0
  0
VERTEX
  5
1EB
330
1D4
100
AcDbEntity
  8
VRSTVA_1
 62
     7
100
AcDbVertex
100
AcDb2dVertex
 10
83.18648137026241
 20
-90.33453773783303
 30
0.0
  0
VERTEX
  5
1EC
330
1D4
100
AcDbEntity
  8
VRSTVA_1
 62
     7
100
AcDbVertex
100
AcDb2dVertex
 10
81.62361380337882
 20
-90.33453773783303
 30
0.0
  0
VERTEX
  5
1ED
330
1D4
100
AcDbEntity
  8
VRSTVA_1
 62
     7
100
AcDbVertex
100
AcDb2dVertex
 10
80.05385604552474
 20
-90.33453773783303
 30
0.0
  0
SEQEND
  5
1EE
330
1D4
100
AcDbEntity
  8
VRSTVA_1
  0
POLYLINE
  5
1EF
330
1F
100
AcDbEntity
  8
VRSTVA_1
 62
     7
100
AcDb2dPolyline
 66
     1
 10
0.0
 20
0.0
 30
0.0
  0
VERTEX
  5
1F0
330
1EF
100
AcDbEntity
  8
VRSTVA_1
 62
     7
100
AcDbVertex
100
AcDb2dVertex
 10
80.05385604552474
 20
-90.33453773783303
 30
0.0
  0
VERTEX
  5
1F1
330
1EF
100
AcDbEntity
  8
VRSTVA_1
 62
     7
100
AcDbVertex
100
AcDb2dVertex
 10
78.4842705424449
 20
-90.33453773783303
 30
0.0
  0
VERTEX
  5
1F2
330
1EF
100
AcDbEntity
  8
VRSTVA_1
 62
     7
100
AcDbVertex
100
AcDb2dVertex
 10
76.92140297556132
 20
-90.33453773783303
 30
0.0
  0
VERTEX
  5
1F3
330
1EF
100
AcDbEntity
  8
VRSTVA_1
 62
     7
100
AcDbVertex
100
AcDb2dVertex
 10
75.37179902629595
 20
-90.33453773783303
 30
0.0
  0
VERTEX
  5
1F4
330
1EF
100
AcDbEntity
  8
VRSTVA_1
 62
     7
100
AcDbVertex
100
AcDb2dVertex
 10
73.84234888561927
 20
-90.33453773783303
 30
0.0
  0
VERTEX
  5
1F5
330
1EF
100
AcDbEntity
  8
VRSTVA_1
 62
     7
100
AcDbVertex
100
AcDb2dVertex
 10
72.33942598017903
 20
-90.33453773783303
 30
0.0
  0
VERTEX
  5
1F6
330
1EF
100
AcDbEntity
  8
VRSTVA_1
 62
     7
100
AcDbVertex
100
AcDb2dVertex
 10
70.86940373662293
 20
-90.33453773783303
 30
0.0
  0
VERTEX
  5
1F7
330
1EF
100
AcDbEntity
  8
VRSTVA_1
 62
     7
100
AcDbVertex
100
AcDb2dVertex
 10
69.4390000911472
 20
-90.33453773783303
 30
0.0
  0
VERTEX
  5
1F8
330
1EF
100
AcDbEntity
  8
VRSTVA_1
 62
     7
100
AcDbVertex
100
AcDb2dVertex
 10
68.05407170607677
 20
-90.33453773783303
 30
0.0
  0
VERTEX
  5
1F9
330
1EF
100
AcDbEntity
  8
VRSTVA_1
 62
     7
100
AcDbVertex
100
AcDb2dVertex
 10
66.72030298896229
 20
-90.33453773783303
 30
0.0
  0
VERTEX
  5
1FA
330
1EF
100
AcDbEntity
  8
VRSTVA_1
 62
     7
100
AcDbVertex
100
AcDb2dVertex
 10
65.44372285690297
 20
-90.33453773783303
 30
0.0
  0
VERTEX
  5
1FB
330
1EF
100
AcDbEntity
  8
VRSTVA_1
 62
     7
100
AcDbVertex
100
AcDb2dVertex
 10
64.22967120790092
 20
-90.33453773783303
 30
0.0
  0
VERTEX
  5
1FC
330
1EF
100
AcDbEntity
  8
VRSTVA_1
 62
     7
100
AcDbVertex
100
AcDb2dVertex
 10
63.08331568518403
 20
-90.33453773783303
 30
0.0
  0
VERTEX
  5
1FD
330
1EF
100
AcDbEntity
  8
VRSTVA_1
 62
     7
100
AcDbVertex
100
AcDb2dVertex
 10
62.00982393198019
 20
-90.33453773783303
 30
0.0
  0
VERTEX
  5
1FE
330
1EF
100
AcDbEntity
  8
VRSTVA_1
 62
     7
100
AcDbVertex
100
AcDb2dVertex
 10
61.01333006287167
 20
-90.33453773783303
 30
0.0
  0
VERTEX
  5
1FF
330
1EF
100
AcDbEntity
  8
VRSTVA_1
 62
     7
100
AcDbVertex
100
AcDb2dVertex
 10
60.09865721153784
 20
-90.33453773783303
 30
0.0
  0
VERTEX
  5
200
330
1EF
100
AcDbEntity
  8
VRSTVA_1
 62
     7
100
AcDbVertex
100
AcDb2dVertex
 10
59.26925047346394
 20
-90.33453773783303
 30
0.0
  0
VERTEX
  5
201
330
1EF
100
AcDbEntity
  8
VRSTVA_1
 62
     7
100
AcDbVertex
100
AcDb2dVertex
 10
58.52907170845801
 20
-90.33453773783303
 30
0.0
  0
VERTEX
  5
202
330
1EF
100
AcDbEntity
  8
VRSTVA_1
 62
     7
100
AcDbVertex
100
AcDb2dVertex
 10
57.88070473813399
 20
-90.33453773783303
 30
0.0
  0
VERTEX
  5
203
330
1EF
100
AcDbEntity
  8
VRSTVA_1
 62
     7
100
AcDbVertex
100
AcDb2dVertex
 10
57.32759465797713
 20
-90.33453773783303
 30
0.0
  0
VERTEX
  5
204
330
1EF
100
AcDbEntity
  8
VRSTVA_1
 62
     7
100
AcDbVertex
100
AcDb2dVertex
 10
56.87180852527858
 20
-90.33453773783303
 30
0.0
  0
VERTEX
  5
205
330
1EF
100
AcDbEntity
  8
VRSTVA_1
 62
     7
100
AcDbVertex
100
AcDb2dVertex
 10
56.51506888778096
 20
-90.33453773783303
 30
0.0
  0
VERTEX
  5
206
330
1EF
100
AcDbEntity
  8
VRSTVA_1
 62
     7
100
AcDbVertex
100
AcDb2dVertex
 10
56.25909829322689
 20
-90.33453773783303
 30
0.0
  0
VERTEX
  5
207
330
1EF
100
AcDbEntity
  8
VRSTVA_1
 62
     7
100
AcDbVertex
100
AcDb2dVertex
 10
56.10544703458475
 20
-90.33453773783303
 30
0.0
  0
VERTEX
  5
208
330
1EF
100
AcDbEntity
  8
VRSTVA_1
 62
     7
100
AcDbVertex
100
AcDb2dVertex
 10
56.05394285708027
 20
-90.33453773783303
 30
0.0
  0
SEQEND
  5
209
330
1EF
100
AcDbEntity
  8
VRSTVA_1
  0
POLYLINE
  5
20A
330
1F
100
AcDbEntity
  8
VRSTVA_1
 62
     7
100
AcDb2dPolyline
 66
     1
 10
0.0
 20
0.0
 30
0.0
  0
VERTEX
  5
20B
330
20A
100
AcDbEntity
  8
VRSTVA_1
 62
     7
100
AcDbVertex
100
AcDb2dVertex
 10
104.0539414887435
 20
-113.5343274998282
 30
0.0
  0
VERTEX
  5
20C
330
20A
100
AcDbEntity
  8
VRSTVA_1
 62
     7
100
AcDbVertex
100
AcDb2dVertex
 10
104.0539414887435
 20
-90.33453773783303
 30
0.0
  0
SEQEND
  5
20D
330
20A
100
AcDbEntity
  8
VRSTVA_1
  0
POLYLINE
  5
20E
330
1F
100
AcDbEntity
  8
VRSTVA_1
 62
     7
100
AcDb2dPolyline
 66
     1
 10
0.0
 20
0.0
 30
0.0
  0
VERTEX
  5
20F
330
20E
100
AcDbEntity
  8
VRSTVA_1
 62
     7
100
AcDbVertex
100
AcDb2dVertex
 10
56.05394285708027
 20
-90.33453773783303
 30
0.0
  0
VERTEX
  5
210
330
20E
100
AcDbEntity
  8
VRSTVA_1
 62
     7
100
AcDbVertex
100
AcDb2dVertex
 10
56.05394285708027
 20
-113.5343274998282
 30
0.0
  0
SEQEND
  5
211
330
20E
100
AcDbEntity
  8
VRSTVA_1
  0
INSERT
  5
214
330
1F
100
AcDbEntity
  8
KOTY
100
AcDbBlockReference
  2
BLOCK_2
 10
0.0
 20
0.0
 30
0.0
  0
INSERT
  5
230
330
1F
100
AcDbEntity
  8
KOTY
100
AcDbBlockReference
  2
BLOCK_3
 10
0.0
 20
0.0
 30
0.0
  0
INSERT
  5
407
330
1F
100
AcDbEntity
  8
KOTY
100
AcDbBlockReference
  2
BLOCK_4
 10
0.0
 20
0.0
 30
0.0
  0
ENDSEC
  0
SECTION
  2
OBJECTS
  0
DICTIONARY
  5
C
330
0
100
AcDbDictionary
  3
ACAD_GROUP
350
D
  3
ACAD_LAYOUT
350
1A
  3
ACAD_MLINESTYLE
350
17
  3
ACAD_PLOTSETTINGS
350
19
  3
ACAD_TABLESTYLE
350
432
  3
ACAD_VISUALSTYLE
350
2A
  3
ACDBHEADERROUNDTRIPXREC
350
412
  0
DICTIONARY
  5
D
102
{ACAD_REACTORS
330
C
102
}
330
C
100
AcDbDictionary
  0
DICTIONARY
  5
1A
102
{ACAD_REACTORS
330
C
102
}
330
C
100
AcDbDictionary
  0
DICTIONARY
  5
17
102
{ACAD_REACTORS
330
C
102
}
330
C
100
AcDbDictionary
  3
STANDARD
350
18
  0
DICTIONARY
  5
19
102
{ACAD_REACTORS
330
C
102
}
330
C
100
AcDbDictionary
  0
DICTIONARY
  5
432
102
{ACAD_REACTORS
330
C
102
}
330
C
100
AcDbDictionary
  0
DICTIONARY
  5
2A
102
{ACAD_REACTORS
330
C
102
}
330
C
100
AcDbDictionary
  3
2DWIREFRAME
350
2F
  3
3D_HIDDEN
350
31
  3
3DWIREFRAME
350
30
  3
BASIC
350
32
  3
BRIGHTEN
350
36
  3
COLORCHANGE
350
3A
  3
CONCEPTUAL
350
34
  3
DIM
350
35
  3
FACEPATTERN
350
39
  3
FLAT
350
2B
  3
FLATWITHEDGES
350
2C
  3
GOURAUD
350
2D
  3
GOURAUDWITHEDGES
350
2E
  3
LINEPATTERN
350
38
  3
REALISTIC
350
33
  3
THICKEN
350
37
  0
DICTIONARY
  5
412
102
{ACAD_REACTORS
330
C
102
}
330
C
100
AcDbDictionary
  3
CEPSNTYPE
350
41B
  3
DIMSTYLEDATA
350
431
  3
FINGERPRINTGUID
350
41C
  3
HYPERLINKBASE
350
415
  3
INSUNITS
350
41A
  3
LAYOUTDICT
350
417
  3
LWETCUNION
350
419
  3
PLOTSETDICT
350
418
  3
PSVPSCALE
350
41E
  3
PUCSBASE
350
421
  3
PUCSORGBACK
350
427
  3
PUCSORGBOTTOM
350
423
  3
PUCSORGFRONT
350
426
  3
PUCSORGLEFT
350
424
  3
PUCSORGRIGHT
350
425
  3
PUCSORGTOP
350
422
  3
PUCSORTHOREF
350
41F
  3
PUCSORTHOVIEW
350
420
  3
STYLESHEET
350
416
  3
TSTACKALIGN
350
413
  3
TSTACKSIZE
350
414
  3
UCSBASE
350
42A
  3
UCSORGBACK
350
430
  3
UCSORGBOTTOM
350
42C
  3
UCSORGFRONT
350
42F
  3
UCSORGLEFT
350
42D
  3
UCSORGRIGHT
350
42E
  3
UCSORGTOP
350
42B
  3
UCSORTHOREF
350
428
  3
UCSORTHOVIEW
350
429
  3
VERSIONGUID
350
41D
  0
MLINESTYLE
  5
18
102
{ACAD_REACTORS
330
17
102
}
330
17
100
AcDbMlineStyle
  2
Standard
 70
     0
  3

 62
   256
 51
90.0
 52
90.0
 71
     2
 49
0.5
 62
   256
  6
BYLAYER
 49
-0.5
 62
   256
  6
BYLAYER
  0
VISUALSTYLE
  5
2F
102
{ACAD_REACTORS
330
2A
102
}
330
2A
100
AcDbVisualStyle
  2
2dWireframe
 70
     4
 71
     0
 72
     2
 73
     0
 90
        0
 40
-0.6
 41
-30.0
 62
     5
 63
     7
 74
     1
 91
        4
 64
     7
 65
   257
 75
     1
175
     1
 42
1.0
 92
        0
 66
   257
 43
1.0
 76
     1
 77
     6
 78
     2
 67
     7
 79
     5
170
     0
171
     0
290
     0
174
     0
 93
        1
 44
0.0
173
     0
291
     0
 45
0.0
1001
ACAD
1000
AcDbSavedByObjectVersion
1070
     0
  0
VISUALSTYLE
  5
31
102
{ACAD_REACTORS
330
2A
102
}
330
2A
100
AcDbVisualStyle
  2
3D Hidden
 70
     6
 71
     1
 72
     2
 73
     2
 90
        0
 40
-0.6
 41
-30.0
 62
     5
 63
     7
 74
     2
 91
        2
 64
     7
 65
   257
 75
     2
175
     1
 42
40.0
 92
        0
 66
   257
 43
1.0
 76
     1
 77
     6
 78
     2
 67
     7
 79
     3
170
     0
171
     0
290
     0
174
     0
 93
        1
 44
0.0
173
     0
291
     0
 45
0.0
1001
ACAD
1000
AcDbSavedByObjectVersion
1070
     0
  0
VISUALSTYLE
  5
30
102
{ACAD_REACTORS
330
2A
102
}
330
2A
100
AcDbVisualStyle
  2
3dWireframe
 70
     5
 71
     0
 72
     2
 73
     0
 90
        0
 40
-0.6
 41
-30.0
 62
     5
 63
     7
 74
     1
 91
        4
 64
     7
 65
   257
 75
     1
175
     1
 42
1.0
 92
        0
 66
   257
 43
1.0
 76
     1
 77
     6
 78
     2
 67
     7
 79
     5
170
     0
171
     0
290
     0
174
     0
 93
        1
 44
0.0
173
     0
291
     0
 45
0.0
1001
ACAD
1000
AcDbSavedByObjectVersion
1070
     0
  0
VISUALSTYLE
  5
32
102
{ACAD_REACTORS
330
2A
102
}
330
2A
100
AcDbVisualStyle
  2
Basic
 70
     7
 71
     1
 72
     0
 73
     1
 90
        0
 40
-0.6
 41
-30.0
 62
     5
 63
     7
 74
     0
 91
        4
 64
     7
 65
   257
 75
     1
175
     1
 42
1.0
 92
        8
 66
     7
 43
1.0
 76
     1
 77
     6
 78
     2
 67
     7
 79
     5
170
     0
171
     0
290
     0
174
     0
 93
        1
 44
0.0
173
     0
291
     1
 45
0.0
1001
ACAD
1000
AcDbSavedByObjectVersion
1070
     0
  0
VISUALSTYLE
  5
36
102
{ACAD_REACTORS
330
2A
102
}
330
2A
100
AcDbVisualStyle
  2
Brighten
 70
    12
 71
     2
 72
     2
 73
     0
 90
        0
 40
-0.6
 41
-30.0
 62
     5
 63
     7
 74
     1
 91
        4
 64
     7
 65
   257
 75
     1
175
     1
 42
1.0
 92
        8
 66
     7
 43
1.0
 76
     1
 77
     6
 78
     2
 67
     7
 79
     5
170
     0
171
     0
290
     0
174
     0
 93
        1
 44
50.0
173
     0
291
     1
 45
0.0
1001
ACAD
1000
AcDbSavedByObjectVersion
1070
     0
  0
VISUALSTYLE
  5
3A
102
{ACAD_REACTORS
330
2A
102
}
330
2A
100
AcDbVisualStyle
  2
ColorChange
 70
    16
 71
     2
 72
     2
 73
     3
 90
        0
 40
-0.6
 41
-30.0
 62
     5
 63
     8
 74
     1
 91
        4
 64
     7
 65
   257
 75
     1
175
     1
 42
1.0
 92
        8
 66
     8
 43
1.0
 76
     1
 77
     6
 78
     2
 67
     7
 79
     5
170
     0
171
     0
290
     0
174
     0
 93
        1
 44
0.0
173
     0
291
     1
 45
0.0
1001
ACAD
1000
AcDbSavedByObjectVersion
1070
     0
  0
VISUALSTYLE
  5
34
102
{ACAD_REACTORS
330
2A
102
}
330
2A
100
AcDbVisualStyle
  2
Conceptual
 70
     9
 71
     3
 72
     2
 73
     0
 90
        0
 40
-0.6
 41
-30.0
 62
     5
 63
     7
 74
     2
 91
        2
 64
     7
 65
   257
 75
     1
175
     1
 42
40.0
 92
        8
 66
     7
 43
1.0
 76
     1
 77
     6
 78
     2
 67
     7
 79
     3
170
     0
171
     0
290
     0
174
     0
 93
        1
 44
0.0
173
     0
291
     0
 45
0.0
1001
ACAD
1000
AcDbSavedByObjectVersion
1070
     0
  0
VISUALSTYLE
  5
35
102
{ACAD_REACTORS
330
2A
102
}
330
2A
100
AcDbVisualStyle
  2
Dim
 70
    11
 71
     2
 72
     2
 73
     0
 90
        0
 40
-0.6
 41
-30.0
 62
     5
 63
     7
 74
     1
 91
        4
 64
     7
 65
   257
 75
     1
175
     1
 42
1.0
 92
        8
 66
     7
 43
1.0
 76
     1
 77
     6
 78
     2
 67
     7
 79
     5
170
     0
171
     0
290
     0
174
     0
 93
        1
 44
-50.0
173
     0
291
     1
 45
0.0
1001
ACAD
1000
AcDbSavedByObjectVersion
1070
     0
  0
VISUALSTYLE
  5
39
102
{ACAD_REACTORS
330
2A
102
}
330
2A
100
AcDbVisualStyle
  2
Facepattern
 70
    15
 71
     2
 72
     2
 73
     0
 90
        0
 40
-0.6
 41
-30.0
 62
     5
 63
     7
 74
     1
 91
        4
 64
     7
 65
   257
 75
     1
175
     1
 42
1.0
 92
        8
 66
     7
 43
1.0
 76
     1
 77
     6
 78
     2
 67
     7
 79
     5
170
     0
171
     0
290
     0
174
     0
 93
        1
 44
0.0
173
     0
291
     1
 45
0.0
1001
ACAD
1000
AcDbSavedByObjectVersion
1070
     0
  0
VISUALSTYLE
  5
2B
102
{ACAD_REACTORS
330
2A
102
}
330
2A
100
AcDbVisualStyle
  2
Flat
 70
     0
 71
     2
 72
     1
 73
     1
 90
        2
 40
-0.6
 41
30.0
 62
     5
 63
     7
 74
     0
 91
        4
 64
     7
 65
   257
 75
     1
175
     1
 42
1.0
 92
        8
 66
     7
 43
1.0
 76
     1
 77
     6
 78
     2
 67
     7
 79
     5
170
     0
171
     0
290
     0
174
     0
 93
       13
 44
0.0
173
     0
291
     1
 45
0.0
1001
ACAD
1000
AcDbSavedByObjectVersion
1070
     0
  0
VISUALSTYLE
  5
2C
102
{ACAD_REACTORS
330
2A
102
}
330
2A
100
AcDbVisualStyle
  2
FlatWithEdges
 70
     1
 71
     2
 72
     1
 73
     1
 90
        2
 40
-0.6
 41
30.0
 62
     5
 63
     7
 74
     1
 91
        4
 64
     7
 65
   257
 75
     1
175
     1
 42
1.0
 92
        0
 66
   257
 43
1.0
 76
     1
 77
     6
 78
     2
 67
     7
 79
     5
170
     0
171
     0
290
     0
174
     0
 93
       13
 44
0.0
173
     0
291
     1
 45
0.0
1001
ACAD
1000
AcDbSavedByObjectVersion
1070
     0
  0
VISUALSTYLE
  5
2D
102
{ACAD_REACTORS
330
2A
102
}
330
2A
100
AcDbVisualStyle
  2
Gouraud
 70
     2
 71
     2
 72
     2
 73
     1
 90
        2
 40
-0.6
 41
30.0
 62
     5
 63
     7
 74
     0
 91
        4
 64
     7
 65
   257
 75
     1
175
     1
 42
1.0
 92
        0
 66
     7
 43
1.0
 76
     1
 77
     6
 78
     2
 67
     7
 79
     5
170
     0
171
     0
290
     0
174
     0
 93
       13
 44
0.0
173
     0
291
     1
 45
0.0
1001
ACAD
1000
AcDbSavedByObjectVersion
1070
     0
  0
VISUALSTYLE
  5
2E
102
{ACAD_REACTORS
330
2A
102
}
330
2A
100
AcDbVisualStyle
  2
GouraudWithEdges
 70
     3
 71
     2
 72
     2
 73
     1
 90
        2
 40
-0.6
 41
30.0
 62
     5
 63
     7
 74
     1
 91
        4
 64
     7
 65
   257
 75
     1
175
     1
 42
1.0
 92
        0
 66
   257
 43
1.0
 76
     1
 77
     6
 78
     2
 67
     7
 79
     5
170
     0
171
     0
290
     0
174
     0
 93
       13
 44
0.0
173
     0
291
     1
 45
0.0
1001
ACAD
1000
AcDbSavedByObjectVersion
1070
     0
  0
VISUALSTYLE
  5
38
102
{ACAD_REACTORS
330
2A
102
}
330
2A
100
AcDbVisualStyle
  2
Linepattern
 70
    14
 71
     2
 72
     2
 73
     0
 90
        0
 40
-0.6
 41
-30.0
 62
     5
 63
     7
 74
     1
 91
        4
 64
     7
 65
   257
 75
     7
175
     7
 42
1.0
 92
        8
 66
     7
 43
1.0
 76
     1
 77
     6
 78
     2
 67
     7
 79
     5
170
     0
171
     0
290
     0
174
     0
 93
        1
 44
0.0
173
     0
291
     1
 45
0.0
1001
ACAD
1000
AcDbSavedByObjectVersion
1070
     0
  0
VISUALSTYLE
  5
33
102
{ACAD_REACTORS
330
2A
102
}
330
2A
100
AcDbVisualStyle
  2
Realistic
 70
     8
 71
     2
 72
     2
 73
     0
 90
        0
 40
-0.6
 41
-30.0
 62
     5
 63
     7
 74
     1
 91
        0
 64
     7
 65
   257
 75
     1
175
     1
 42
1.0
 92
        8
 66
     8
 43
1.0
 76
     1
 77
     6
 78
     2
 67
     7
 79
     5
170
     0
171
     0
290
     0
174
     0
 93
       13
 44
0.0
173
     0
291
     0
 45
0.0
1001
ACAD
1000
AcDbSavedByObjectVersion
1070
     0
  0
VISUALSTYLE
  5
37
102
{ACAD_REACTORS
330
2A
102
}
330
2A
100
AcDbVisualStyle
  2
Thicken
 70
    13
 71
     2
 72
     2
 73
     0
 90
        0
 40
-0.6
 41
-30.0
 62
     5
 63
     7
 74
     1
 91
        4
 64
     7
 65
   257
 75
     1
175
     1
 42
1.0
 92
       12
 66
     7
 43
1.0
 76
     1
 77
     6
 78
     2
 67
     7
 79
     5
170
     0
171
     0
290
     0
174
     0
 93
        1
 44
0.0
173
     0
291
     1
 45
0.0
1001
ACAD
1000
AcDbSavedByObjectVersion
1070
     0
  0
XRECORD
  5
41B
102
{ACAD_REACTORS
330
412
102
}
330
412
100
AcDbXrecord
 90
        0
  0
XRECORD
  5
431
102
{ACAD_REACTORS
330
412
102
}
330
412
100
AcDbXrecord
1000
DSTYLE
1002
{
1070
   340
340
11
1002
}
  0
XRECORD
  5
41C
102
{ACAD_REACTORS
330
412
102
}
330
412
100
AcDbXrecord
  1
{9B191F12-1C31-4A37-9FEB-0CD47D367027}
  0
XRECORD
  5
415
102
{ACAD_REACTORS
330
412
102
}
330
412
100
AcDbXrecord
  1

  0
XRECORD
  5
41A
102
{ACAD_REACTORS
330
412
102
}
330
412
100
AcDbXrecord
 90
        1
  0
XRECORD
  5
417
102
{ACAD_REACTORS
330
412
102
}
330
412
100
AcDbXrecord
340
1A
  0
XRECORD
  5
419
102
{ACAD_REACTORS
330
412
102
}
330
412
100
AcDbXrecord
 90
    10269
  0
XRECORD
  5
418
102
{ACAD_REACTORS
330
412
102
}
330
412
100
AcDbXrecord
340
19
  0
XRECORD
  5
41E
102
{ACAD_REACTORS
330
412
102
}
330
412
100
AcDbXrecord
 40
0.0
  0
XRECORD
  5
421
102
{ACAD_REACTORS
330
412
102
}
330
412
100
AcDbXrecord
340
0
  0
XRECORD
  5
427
102
{ACAD_REACTORS
330
412
102
}
330
412
100
AcDbXrecord
 10
0.0
 20
0.0
 30
0.0
  0
XRECORD
  5
423
102
{ACAD_REACTORS
330
412
102
}
330
412
100
AcDbXrecord
 10
0.0
 20
0.0
 30
0.0
  0
XRECORD
  5
426
102
{ACAD_REACTORS
330
412
102
}
330
412
100
AcDbXrecord
 10
0.0
 20
0.0
 30
0.0
  0
XRECORD
  5
424
102
{ACAD_REACTORS
330
412
102
}
330
412
100
AcDbXrecord
 10
0.0
 20
0.0
 30
0.0
  0
XRECORD
  5
425
102
{ACAD_REACTORS
330
412
102
}
330
412
100
AcDbXrecord
 10
0.0
 20
0.0
 30
0.0
  0
XRECORD
  5
422
102
{ACAD_REACTORS
330
412
102
}
330
412
100
AcDbXrecord
 10
0.0
 20
0.0
 30
0.0
  0
XRECORD
  5
41F
102
{ACAD_REACTORS
330
412
102
}
330
412
100
AcDbXrecord
340
0
  0
XRECORD
  5
420
102
{ACAD_REACTORS
330
412
102
}
330
412
100
AcDbXrecord
 70
     0
  0
XRECORD
  5
416
102
{ACAD_REACTORS
330
412
102
}
330
412
100
AcDbXrecord
  1

  0
XRECORD
  5
413
102
{ACAD_REACTORS
330
412
102
}
330
412
100
AcDbXrecord
 90
        1
  0
XRECORD
  5
414
102
{ACAD_REACTORS
330
412
102
}
330
412
100
AcDbXrecord
 90
       70
  0
XRECORD
  5
42A
102
{ACAD_REACTORS
330
412
102
}
330
412
100
AcDbXrecord
340
0
  0
XRECORD
  5
430
102
{ACAD_REACTORS
330
412
102
}
330
412
100
AcDbXrecord
 10
0.0
 20
0.0
 30
0.0
  0
XRECORD
  5
42C
102
{ACAD_REACTORS
330
412
102
}
330
412
100
AcDbXrecord
 10
0.0
 20
0.0
 30
0.0
  0
XRECORD
  5
42F
102
{ACAD_REACTORS
330
412
102
}
330
412
100
AcDbXrecord
 10
0.0
 20
0.0
 30
0.0
  0
XRECORD
  5
42D
102
{ACAD_REACTORS
330
412
102
}
330
412
100
AcDbXrecord
 10
0.0
 20
0.0
 30
0.0
  0
XRECORD
  5
42E
102
{ACAD_REACTORS
330
412
102
}
330
412
100
AcDbXrecord
 10
0.0
 20
0.0
 30
0.0
  0
XRECORD
  5
42B
102
{ACAD_REACTORS
330
412
102
}
330
412
100
AcDbXrecord
 10
0.0
 20
0.0
 30
0.0
  0
XRECORD
  5
428
102
{ACAD_REACTORS
330
412
102
}
330
412
100
AcDbXrecord
340
0
  0
XRECORD
  5
429
102
{ACAD_REACTORS
330
412
102
}
330
412
100
AcDbXrecord
 70
     0
  0
XRECORD
  5
41D
102
{ACAD_REACTORS
330
412
102
}
330
412
100
AcDbXrecord
  1
{FAEB1C32-E019-11D5-929B-00C0DF256EC4}
  0
ENDSEC
  0
EOF
